Last Nite Regrets Tabs & Lyrics by Home Grown

Last Nite Regrets

guitar tabs lyrics

Home Grown

Album : Act Your Age punk rock PlayStop


-----------------------------------------------------------------------------
HOME GROWN-Last Nite Regrets
-----------------------------------------------------------------------------
TAB BY: Rob (freeskier20@hotmail.com)
tuned guitar down half-step (Eb)
This tab took forever to figure out both guitar parts but i did it. You don't
need to tune it down because it still sounds good but if ur using it for a band
and ur singing it, i'd tune it down cause it will strain ur singer's voice.

Intro: Guitar 2 (clean)

e|---------------------------------------------------------------------------|
B|---------------------------------------------------------------------------|
G|-----0-----0--------------------------0-----0----------0-----0-------------|
D|---0-----0-----0-----0-----0--------0-----0-----0----0-----0-----0---------|
A|-3-----3-----3-----0-----0-----0--3-----3-----3----5-----7-----5-----------|
E|-----------------3-----2-----0---------------------------------------------|
Intro (Continued): Guitar 2 (clean)
e|---------------------------------------------------------------------------|
B|-----------------------0-----0----------3-----3-----5-----3------3---------| do
G|------0-----0--------0-----0-----0----0-----0-----0-----0------0-----------| this
D|----0-----0-----0--2-----2-----2----4-----4-----4-----4-----4--------------|
A|--3-----3-----3------------------------------------------------------------|
E|---------------------------------------------------------------------------|
Intro: Guitar 1 (dist)
e|---------------------------------------------------------------------------|
B|---------------12------------------------------------12--------------------|
G|--12----12--14------12----12--14--11----12----12--14-----------------------|
D|---------------------------------------------------------------------------|
A|---------------------------------------------------------------------------|
E|---------------------------------------------------------------------------|
Intro (Continued): Guitar 1 (dist)
e|---------------------------------------------------------------------------| last note
B|---13--13--13--13--13--13--13--13--15--15--15--15--15--17--15--------------| is there
G|---------------------------------------------------------------(12)--------| but not
D|---------------------------------------------------------------------------| played live
A|---------------------------------------------------------------------------|
E|---------------------------------------------------------------------------|

Verse: Both Guitars (listen for strokes, i'm too lazy!)
e|----------------------------------------------------------------------------|
B|----------------------------------------------------------------------------|
G|-------7--------------------7---5----7--7---9--9--------7-------------------|
D|---5---7---2----4--4----5---7---5----7--7---9--9----5---7---2---------------|
A|---5---5---2----4--4----5---5---3----5--5---7--7----5---5---2---------------|
E|---3-------0----2--2----3---------------------------3-------0---------------|
Verse: "i asked her for a kiss... she answered with her fist..."
e|----------------------------------------------------------------------------|
B|----------------------------------------------------------------------------|
G|-------5--5-5-5-5-5-5-5-5-5-5-5-5-5-5---7--7-7-7-7-7-7-7-7-7-7-7-7-7-7------|
D|-------5--5-5-5-5-5-5-5-5-5-5-5-5-5-5---7--7-7-7-7-7-7-7-7-7-7-7-7-7-7------|
A|-------3--3-3-3-3-3-3-3-3-3-3-3-3-3-3---5--5-5-5-5-5-5-5-5-5-5-5-5-5-5------|
E|----------------------------------------------------------------------------|
x x x x x x x x x x x x x x x x x x x x x x x x
Verse: Guitar 1 (i can't hear clean guitar 2 in the background)
e|--------------------------|
B|--------------------------|
G|---4--4--4--5---5--5--7---| do this 3 times, on the last time stop at
D|---4--4--4--5---5--5--7---| "i lost another friend!"
A|---2--2--2--3---3--3--5---|
E|--------------------------|
Verse: Both Guitars "i am a user..."
e|------------------------------------|
B|------------------------------------|
G|--------5--------7--------5----7----|
D|----2---5----2---7----2---5----7----|
A|----2---3----2---5----2---3----5----|
E|----0--------0--------0-------------|

Guitar 2 (clean)
e|---------------------------------------------------------------------------|
B|---------------------------------------------------------------------------|
G|-----0-----0--------------------------0-----0----------0-----0-------------|
D|---0-----0-----0-----0-----0--------0-----0-----0----0-----0-----0---------|
A|-3-----3-----3-----0-----0-----0--3-----3-----3----5-----7-----5-----------|
E|-----------------3-----2-----0---------------------------------------------|
Guitar 2 continued (clean)
e|---------------------------------------------------------------------------|
B|-----------------------0-----0----------3-----3-----5-----3------3---------|
G|------0-----0--------0-----0-----0----0-----0-----0-----0------0-----------|
D|----0-----0-----0--2-----2-----2----4-----4-----4-----4-----4--------------|
A|--3-----3-----3------------------------------------------------------------|
E|---------------------------------------------------------------------------|
Guitar 1 (dist)
e|---------------------------------------------------------------------------|
B|---------------12-------------------------------------------12-------------|
G|--12----12--14------12----12--14--11--12h-11p--12----12--14----------------|
D|---------------------------------------------------------------------------|
A|---------------------------------------------------------------------------|
E|---------------------------------------------------------------------------|
Guitar 1 continued (dist)
e|---------------------------------------------------------------(15)--------| last note
B|---13--13--13--13--13--13--13--13--15--15--15--15--15--17--15--------------| is there
G|---------------------------------------------------------------------------| but not
D|---------------------------------------------------------------------------| played live
A|---------------------------------------------------------------------------|
E|---------------------------------------------------------------------------|
Repeat Verse
Chorus: Both Guitars. "she said it's over..."
e|---------------------------------------------------------------------------|
B|---------------------------------------------------------------------------| guitar 2
G|---5---5-5-5-5-5----------------------7---7-7-7-7-7---9---9-9-9-9-9-9-9----| does some
D|---5---5-5-5-5-5--5---5-5-5-5-5-5-5---7---7-7-7-7-7---9---9-9-9-9-9-9-9----| other wierd
A|---3---3-3-3-3-3--5---5-5-5-5-5-5-5---5---5-5-5-5-5---7---7-7-7-7-7-7-7----| thing in the
E|------------------3---3-3-3-3-3-3-3----------------------------------------| background
x x x x x x x x x x x x x x x x x x x x x x x x
Chorus: Both Guitars
e|------------------------------------------|
B|------------------------------------------|
G|---5---5-5-5-5-5----------------------7---|
D|---5---5-5-5-5-5--5---5-5-5-5-5-5-5---7---|
A|---3---3-3-3-3-3--5---5-5-5-5-5-5-5---5---|
E|------------------3---3-3-3-3-3-3-3-------|
x x x x x x x x x x x x
Chorus: Both Guitars. "she said it's over..."
e|---------------------------------------------------------------------------|
B|---------------------------------------------------------------------------|
G|---5---5-5-5-5-5----------------------7---7-7-7-7-7---9---9-9-9-9-9-9-9----|
D|---5---5-5-5-5-5--5---5-5-5-5-5-5-5---7---7-7-7-7-7---9---9-9-9-9-9-9-9----|
A|---3---3-3-3-3-3--5---5-5-5-5-5-5-5---5---5-5-5-5-5---7---7-7-7-7-7-7-7----|
E|------------------3---3-3-3-3-3-3-3----------------------------------------|
Chorus: Both Guitars
e|------------------------------------------|
B|------------------------------------------|
G|---5---5-5-5-5-5----------------------7---|
D|---5---5-5-5-5-5--5---5-5-5-5-5-5-5---7---|
A|---3---3-3-3-3-3--5---5-5-5-5-5-5-5---5---|
E|------------------3---3-3-3-3-3-3-3-------|

"and i said...im sorry..."
e|----------------------------------------------------|
B|----------------------------------------------------|
G|---4--4--4--4--5--5--5--5--7--7--7--7--7--7--7--7---|
D|---4--4--4--4--5--5--5--5--7--7--7--7--7--7--7--7---| x2
A|---2--2--2--2--3--3--3--3--5--5--5--5--5--5--5--5---|
E|----------------------------------------------------|
x x x x x x x x x x x x
e|--------------------------------------------------------|
B|--------------------------------------------------------| i cant hear the last part
G|---4--4--4--4--5--5--5--5--7--7--7--7--9--9--9--9---9---| but u can easily replace it
D|---4--4--4--4--5--5--5--5--7--7--7--7--9--9--9--9-------| with the last chord i put
A|---2--2--2--2--3--3--3--3--5--5--5--5--7--7--7--7---7---| (they do it on a live tape
E|--------------------------------------------------------| i have)
x x x x x x x x x x x x x x x x
Solo: Guitar 1
e|-------------------------------------| e|----------------------------------|
B|-------------------------------------| B|----------------------------------|
G|---9---9---9--7--6--4--4-4-4-4-4-4---| G|---7--9--11--11--9---11--12--14---|
D|-------------------------------------| x3 D|----------------------------------|
A|---7---7---7--5--4--2--2-2-2-2-2-2---| A|---5--7--9---9---7---9---10--12---|
E|-------------------------------------| E|----------------------------------|

Chorus: Both Guitars "she said it's over..."
e|---------------------------------------------------------------------------|
B|---------------------------------------------------------------------------|
G|---5---5-5-5-5-5----------------------7---7-7-7-7-7---9---9-9-9-9-9-9-9----|
D|---5---5-5-5-5-5--5---5-5-5-5-5-5-5---7---7-7-7-7-7---9---9-9-9-9-9-9-9----|
A|---3---3-3-3-3-3--5---5-5-5-5-5-5-5---5---5-5-5-5-5---7---7-7-7-7-7-7-7----|
E|------------------3---3-3-3-3-3-3-3----------------------------------------|
x x x x x x x x x x x x x x x x x x x x x x x x
Chorus (continued)
e|---------------------------------------------------------------------------|
B|---------------------------------------------------------------------------|
G|---5---5-5-5-5-5----------------------7-7-7-7-7-7-7-7--7-7-7-7-7-7-7-7-----|
D|---5---5-5-5-5-5--5---5-5-5-5-5-5-5---7-7-7-7-7-7-7-7--7-7-7-7-7-7-7-7-----|
A|---3---3-3-3-3-3--5---5-5-5-5-5-5-5---5-5-5-5-5-5-5-5--5-5-5-5-5-5-5-5-----|
E|------------------3---3-3-3-3-3-3-3----------------------------------------|
x x x x x x x x x x x x x x x x x x x x
Chorus (continued) "she said it's over..."
e|---------------------------------------------------------------------------|
B|---------------------------------------------------------------------------|
G|---5---5-5-5-5-5----------------------7---7-7-7-7-7---9---9-9-9-9-9-9-9----|
D|---5---5-5-5-5-5--5---5-5-5-5-5-5-5---7---7-7-7-7-7---9---9-9-9-9-9-9-9----|
A|---3---3-3-3-3-3--5---5-5-5-5-5-5-5---5---5-5-5-5-5---7---7-7-7-7-7-7-7----|
E|------------------3---3-3-3-3-3-3-3----------------------------------------|
Chorus (continued)
e|------------------------------------------|
B|------------------------------------------|
G|---5---5-5-5-5-5----------------------7---|
D|---5---5-5-5-5-5--5---5-5-5-5-5-5-5---7---|
A|---3---3-3-3-3-3--5---5-5-5-5-5-5-5---5---|
E|------------------3---3-3-3-3-3-3-3-------|
Chorus (continued) "she said it's over...she said it's over...she said it's over.."
e|---------------------------------------------------------------------------|
B|---------------------------------------------------------------------------|
G|---5---5-5-5-5-5----------------------7---7-7-7-7-7---9---9-9-9-9-9-9-9----|
D|---5---5-5-5-5-5--5---5-5-5-5-5-5-5---7---7-7-7-7-7---9---9-9-9-9-9-9-9----|
A|---3---3-3-3-3-3--5---5-5-5-5-5-5-5---5---5-5-5-5-5---7---7-7-7-7-7-7-7----|
E|------------------3---3-3-3-3-3-3-3----------------------------------------|
Chorus (continued)
e|-----------------------------------------------------|
B|-----------------------------------------------------|
G|---5---5-5-5-5-5----------------------7--(9)--(11)---| Guitar 2 does
D|---5---5-5-5-5-5--5---5-5-5-5-5-5-5---7--------------| parenthesis
A|---3---3-3-3-3-3--5---5-5-5-5-5-5-5---5--(7)--(9)----|
E|------------------3---3-3-3-3-3-3-3------------------|
Ending: Both Guitars "last nite regrets..."
e|-------|
B|-------|
G|-------|
D|---2---|
A|---2---|
E|---0---|

phew! Finally finished after an hour of work!

Like us on Facebook.....
-> Loading Time :0.0091 sec