Kiss Me, Diss Me Tabs & Lyrics by Home Grown

Kiss Me, Diss Me

guitar tabs lyrics

Home Grown

Album : Kings of Pop p-rock PlayStop


Auror: Home Grown
Song : Kiss Me, Diss Me
By : Alan Garnica

.
Pm.(palm muted)

Intro(guitar1)
|-------------------------------|
|-------------------------------|

|--6---6666---6665-----5555-----|
|--6---6666---6665-----5555-----|
|--4---4444---4463-----3333-----|
|-----------------------------5-|

(guitar 1 and 2)
|------------------------------||------------------------------|
|------------------------------||------------------------------|
|------------------------------||------------------------------|
|---------------4--6-6--4------||---------------4--6-6--4------|
|--2-2-x-6-7-7--4--6-6--4-77-6-||--2-2-x-6-7-7--4--6-6--4-77-6-|
|--2-2-x-6-7-7--2--4-4--2-77-6-||--2-2-x-6-7-7--2--4-4--2-77-6-|
|--0-0-x-4-5-5------------55-4-||--0-0-x-4-5-5------------55-4-|

|------------------------------||------------------------------|
|------------------------------||------------------------------|
|------------------------------||------------------------------|
|--------------6-6-xxxx--------||---------------4--6-6--4------|
|--2-2-x-6-7-7-6-6-xxxx---77-6-||--2-2-x-6-7-7--4--6-6--4-77-6-|
|--2-2-x-6-7-7-4-4-xxxx---77-6-||--2-2-x-6-7-7--2--4-4--2-77-6-|
|--0-0-x-4-5-5------------55-4-||--0-0-x-4-5-5------------55-4-|

(end intro guitar 2)
|-----------------------------|
|-----------------------------|
|-8-8888-8-8888-8-8888--------|
|-x-xxxx-x-xxxx-x-xxxx--------|
|-6-6666-6-6666-6-6666--------|
|-----------------------------|

Verse
|---------------------------------------------------------|
|---------------------------------------------------------|
|---------------------------------------------------------|
|-2-2-2-2-2-2-2-2-2-2-2-2-2-2-6-6-6-6-6-6-6-6-6-6-6-6-6-6-|
|-2-2-2-2-2-2-2-2-2-2-2-2-2-2-6-6-6-6-6-6-6-6-6-6-6-6-6-6-|
|-0-0-0-0-0-0-0-0-0-0-0-0-0-0-4-4-4-4-4-4-4-4-4-4-4-4-4-4-|
pm.......................................................

|---------------------------------------------------------|
|---------------------------------------------------------|
|-6-6-6-6-6-6-6-6-6-6-6-6-6-6-4-4-4-4-4-4-4-4-4-4-4-4-4-4-|
|-6-6-6-6-6-6-6-6-6-6-6-6-6-6-4-4-4-4-4-4-4-4-4-4-4-4-4-4-|
|-4-4-4-4-4-4-4-4-4-4-4-4-4-4-6-6-6-6-6-6-6-6-6-6-6-6-6-6-|
|---------------------------------------------------------|
pm.......................................................

|---------------------------------------------------------|
|---------------------------------------------------------|
|---------------------------------------------------------|
|-2-2-2-2-2-2-2-2-2-2-2-2-2-2-6-6-6-6-6-6-6-6-6-6-6-6-6-6-|
|-2-2-2-2-2-2-2-2-2-2-2-2-2-2-6-6-6-6-6-6-6-6-6-6-6-6-6-6-|
|-0-0-0-0-0-0-0-0-0-0-0-0-0-0-4-4-4-4-4-4-4-4-4-4-4-4-4-4-|
pm.............. ............ .............. ..........

|---------------------------------------------------------|
|---------------------------------------------------------|
|-6-6-6-6-6-6-6-6-6-6-6-6-6-6-4-4-4-4-4-4-4-4-4-4-4-4-4-4-|
|-6-6-6-6-6-6-6-6-6-6-6-6-6-6-4-4-4-4-4-4-4-4-4-4-4-4-4-4-|
|-4-4-4-4-4-4-4-4-4-4-4-4-4-4-6-6-6-6-6-6-6-6-6-6-6-6-6-6-|
|---------------------------------------------------------|
pm .............. ......... .........

Chorus
|--------------------------------|x2|-----------------------------------|
|--------------------------------| |-----------------------------------|
|-2-2-x-x--4-4-x-x------x-x--4-4-| |-2-2-2-2--4-4-4-4-----------4-4-4-4|
|-2-2-x-x--4-4-x-x--2-2-x-x--4-4-| |-2-2-2-2--4-4-4-4--2-2-2-2--4-4-4-4|
|-0-0-x-x--2-2-x-x--2-2-x-x--2-2-| |-0-0-0-0--2-2-2-2--2-2-2-2--2-2-2-2|
|-----x-x------x-x--0-0-x-x------| |-------------------0-0-0-0---------|

Pos Chorus
|------------------------------||------------------------------|
|------------------------------||------------------------------|
|------------------------------||------------------------------|
|---------------4--6-6--4------||---------------4--6-6--4------|
|--2-2-x-6-7-7--4--6-6--4-77-6-||--2-2-x-6-7-7--4--6-6--4-77-6-|
|--2-2-x-6-7-7--2--4-4--2-77-6-||--2-2-x-6-7-7--2--4-4--2-77-6-|
|--0-0-x-4-5-5------------55-4-||--0-0-x-4-5-5------------55-4-|

Verse 2
|---------------------------------------------------------|
|---------------------------------------------------------|
|---------------------------------------------------------|
|-2-2-2-2-2-2-2-2-2-2-2-2-2-2-6-6-6-6-6-6-6-6-6-6-6-6-6-6-|
|-2-2-2-2-2-2-2-2-2-2-2-2-2-2-6-6-6-6-6-6-6-6-6-6-6-6-6-6-|
|-0-0-0-0-0-0-0-0-0-0-0-0-0-0-4-4-4-4-4-4-4-4-4-4-4-4-4-4-|
pm.............. ............ ............. ..........

|---------------------------------------------------------|
|---------------------------------------------------------|
|-6-6-6-6-6-6-6-6-6-6-6-6-6-6-4-4-4-4-4-4-4-4-4-4-4-4-4-4-|
|-6-6-6-6-6-6-6-6-6-6-6-6-6-6-4-4-4-4-4-4-4-4-4-4-4-4-4-4-|
|-4-4-4-4-4-4-4-4-4-4-4-4-4-4-6-6-6-6-6-6-6-6-6-6-6-6-6-6-|
|---------------------------------------------------------|
pm ............ ............ .............. ..........

|---------------------------------------------------------|
|---------------------------------------------------------|
|---------------------------------------------------------|
|-2-2-2-2-2-2-2-2-2-2-2-2-2-2-6-6-6-6-6-6-6-6-6-6-6-6-6-6-|
|-2-2-2-2-2-2-2-2-2-2-2-2-2-2-6-6-6-6-6-6-6-6-6-6-6-6-6-6-|
|-0-0-0-0-0-0-0-0-0-0-0-0-0-0-4-4-4-4-4-4-4-4-4-4-4-4-4-4-|
pm.............. ............ .............. ..........

|---------------------------------------------------------|
|---------------------------------------------------------|
|-6-6-6-6-6-6-6-6-6-6-6-6-6-6-4-4-4-4-4-4-4-4-4-4-4-4-4-4-|
|-6-6-6-6-6-6-6-6-6-6-6-6-6-6-4-4-4-4-4-4-4-4-4-4-4-4-4-4-|
|-4-4-4-4-4-4-4-4-4-4-4-4-4-4-6-6-6-6-6-6-6-6-6-6-6-6-6-6-|
|---------------------------------------------------------|
pm .............. ......... .........

Chorus

|--------------------------------|x2|-----------------------------------|
|--------------------------------| |-----------------------------------|
|-2-2-x-x--4-4-x-x------x-x--4-4-| |-2-2-2-2--4-4-4-4-----------4-4-4-4|
|-2-2-x-x--4-4-x-x--2-2-x-x--4-4-| |-2-2-2-2--4-4-4-4--2-2-2-2--4-4-4-4|
|-0-0-x-x--2-2-x-x--2-2-x-x--2-2-| |-0-0-0-0--2-2-2-2--2-2-2-2--2-2-2-2|
|-----x-x------x-x--0-0-x-x------| |-------------------0-0-0-0---------|
|

Guitar solo

|--0--2--4--0--4--0--2--2--0--4--0--4--2--2---------------|X4
|---------------------------------------------------------|
|--------------------------------------------6-6-6-6------|
|--------------------------------------------6-6-6-6------|
|--------------------------------------------4-4-4-4------|
|---------------------------------------------------------|

final Chorus

Chorus

|--------------------------------|x4|-----------------------------------|
|--------------------------------| |-----------------------------------|
|-2-2-x-x--4-4-x-x------x-x--4-4-| |-2-2-2-2--4-4-4-4-----------4-4-4-4|
|-2-2-x-x--4-4-x-x--2-2-x-x--4-4-| |-2-2-2-2--4-4-4-4--2-2-2-2--4-4-4-4|
|-0-0-x-x--2-2-x-x--2-2-x-x--2-2-| |-0-0-0-0--2-2-2-2--2-2-2-2--2-2-2-2|
|-----x-x------x-x--0-0-x-x------| |-------------------0-0-0-0---------|

gracias espero ke este bien
atte . Alan Garnica

Like us on Facebook.....
-> Loading Time :0.0071 sec