Keep Away Tabs & Lyrics by Godsmack

Keep Away

guitar tabs lyrics

Godsmack

Album : Godsmack hard rock PlayStop


h hammer-on
/ slide up
\ slide down
p pull-off
x mute note
-> hold note
^ bend up
~ vibrato or wammy
intro
|---------------------------------|

|---------------------------------|
|---------------------------------|
|--------0---0---0----0-0---------|
|----3h5---5---5---5---5-5--------|
|---------------------------------|x4

|--------------------------------------------|
|-----3--------------------------------------|
|-----2--------------------------------------|
|-0-0-0---------3-3-3-3-3/5-5-5-5/6-6-6-3----|
|-0-0-0--0-0--0h3-3-3-3-3/5-5-5-5/6-6-6-3----|
|-0-0-0--0-0--0h3-3-3-3-3/5-5-5-5/6-6-6-3----|x4

verse
|--------------------------------------------|
|---3----------------------------------------|
|---2----------------------------------------|
|-0-0--0h3-3-3-3-xx-5-5--5/6-6-6--3----------|
|-0-0--0h3-3-3-3-xx-5-5--5/6-6-6--3----------|
|-0-0--0h3-3-3-3-xx-5-5--5/6-6-6--3----------|x8

|--------------------------------------------|
|--------------------------------------------|
|-7-7-7\5-5-5------2-2--3-3--3-3-3-----------|
|-7-7-7\5-5-5------2-2--3-3--3-3-3-----------|
|-5-5-5\3-3-3--3p0-0-0--1-1--1-1-1-----------|
|--------------------------------------------|x1

|----------------------|
|----------------------|
|----------------------|
|-7-7-7\5-5-5----------|
|-7-7-7\5-5-5----------|
|-5-5-5\3-3-3--3p0--8\-|x1

|--------------------------------------------|
|-----3--------------------------------------|
|-----2--------------------------------------|
|-0-0-0-----3-3-3-3-xx-5-5--5/6-6-6-6-3------|
|-0-0-0-0-0h3-3-3-3-xx-5-5--5/6-6-6-6-3------|
|-0-0-0-0-0h3-3-3-3-xx-5-5--5/6-6-6-6-3------|x2

|--------------------------------------------|
|---3----------------------------------------|
|---2----------------------------------------|
|-0-0--0h3-3-3-3-xx-5-5--5/6-6-6--3----------|
|-0-0--0h3-3-3-3-xx-5-5--5/6-6-6--3----------|
|-0-0--0h3-3-3-3-xx-5-5--5/6-6-6--3----------|x8

|--------------------------------------------|
|--------------------------------------------|
|-7-7-7\5-5-5------2-2--3-3--3-3-3-----------|
|-7-7-7\5-5-5------2-2--3-3--3-3-3-----------|
|-5-5-5\3-3-3--3p0-0-0--1-1--1-1-1-----------|
|--------------------------------------------|x4

|-------|
|-3-->--|
|-2-->--|
|-0-->--|
|-0-->--|
|-0-->--|x2

|---------------------|
|---------------------|
|---------------------|
|-7-7-7-7--7--6-6-6-6-|
|-5-5-5-5--5--5-5-5-5-|
|---------------------|x8

|--10-10-10-10-10-10-10-10-10-10-10-10-10-10-|
|--------------------------------------------|
|--7--7--7--7--7--7--7--7--7--7--7--7--7--7--|
|--------------------------------------------|
|--------------------------------------------|
|--------------------------------------------|x3

solo
|--15^~------------------------------------------------------------|
|------------------------------------------------------------------|
|------12^~---12^~\--12^-12h10----10-12-10-12^--7h10h7-------------|
|------------------------------12----------------------10-7--------|
|-----------------------------------------------------------10-8^\-|
|------------------------------------------------------------------|

|----------------------------------------------------------|
|----------------------------------------------------------|
|--10^-10^h10-7----7h10h7----7-7^-7^-7h5---5-7~--7~7~7~7~--|
|---------------10--------10-------------7-----------------|
|----------------------------------------------------------|
|----------------------------------------------------------|

|-------10-12p10----10----13----13-------------------------|
|--13^-----------13----13^---13^----13^--xx----------------|
|----------------------------------------------------------|
|----------------------------------------------------------|
|----------------------------------------------------------|
|----------------------------------------------------------|

verse
|--------------------------------------------|
|---3----------------------------------------|
|---2----------------------------------------|
|-0-0--0h3-3-3-3-xx-5-5--5/6-6-6--3----------|
|-0-0--0h3-3-3-3-xx-5-5--5/6-6-6--3----------|
|-0-0--0h3-3-3-3-xx-5-5--5/6-6-6--3----------|x4

|--------------------------------------------|
|--------------------------------------------|
|-7-7-7\5-5-5------2-2--3-3--3-3-3-----------|
|-7-7-7\5-5-5------2-2--3-3--3-3-3-----------|
|-5-5-5\3-3-3--3p0-0-0--1-1--1-1-1-----------|
|--------------------------------------------|x8

|-------|
|-3-->--|
|-2-->--|
|-0-->--|
|-0-->--|
|-0-->--|

This is my first tab so enjoy!

Like us on Facebook.....
-> Loading Time :0.0180 sec