Junkhead Tabs & Lyrics by Alice In Chains

Junkhead

guitar tabs lyrics

Alice In Chains

Album : Dirt grunge PlayStop


Intro/Main Riff: 00:04

"yeah..."
|----------------|---------------|
|----------------|---------------|
|--4---3---------|---------------|
|--4---3---2--5--|-4---3---3--2--|
|--2---1---0--5--|-4---3---3--2--|
|-------------3--|-2---1---1--0--|

repeat 3x

Verse: 00:33

p.m. throughout.

"A good night.....in a long time"
|----------------|----------------|
|----------------|----------------|
|----------------|----------------|
|----------------|----------------|
|--2---1---0-----|----------------|
|-------------3--|--2---1---1--0--|

Repeat 3x

Chorus: 00:59

"yeah......" "what's my drug of"
|-----------|------------------------|
|-----------|------------------------|
|--2----7---|------------------------|
|--2----5---|--5----3---3-2-0---0----|
|--0----3---|--5----3---------3------|
|-----------|--3----1-------------3--|

repeat 3x

Verse: 01:27

"Seems so sick...Hypocrite norm"
|----------------|---------------|
|----------------|---------------|
|--4---3---------|---------------|
|--4---3---2--5--|-4---3---3--2--|
|--2---1---0--5--|-4---3---3--2--|
|-------------3--|-2---1---1--0--|

repeat 3x

"Are you happy? I am, man"
|----------------|----------------|
|----------------|----------------|
|----------------|----------------|
|----------------|----------------|
|--2---1---0-----|----------------|
|-------------3--|--2---1---1--0--|

Repeat 3x

Chorus: 02:21

"yeah......" "what's my drug of"
|-----------|------------------------|
|-----------|------------------------|
|--2----7---|------------------------|
|--2----5---|--5----3---3-2-0---0----|
|--0----3---|--5----3---------3------|
|-----------|--3----1-------------3--|

repeat 3x

Solo: 02:49
Bass plays chorus

|----------------|-------------------------------------|
|------------8~--|--8fbr--8-8fb--6~--6--5--------------|
|---------5------|-------------------------7--5--7-----|
|--7---7---------|----------------------------------5--|
|----------------|-------------------------------------|
|----------------|-------------------------------------|

repeat 3x

Main Riff: 03:15

"yeah..."
|----------------|---------------|
|----------------|---------------|
|--4---3---------|---------------|
|--4---3---2--5--|-4---3---3--2--|
|--2---1---0--5--|-4---3---3--2--|
|-------------3--|-2---1---1--0--|

repeat 3x

Verse: 03:44

"You can't.........User's mind"
|----------------|----------------|
|----------------|----------------|
|----------------|----------------|
|----------------|----------------|
|--2---1---0-----|----------------|
|-------------3--|--2---1---1--0--|

repeat 3x

Chorus: 04:10
"what's my drug of"
|-----------|------------------------|
|-----------|------------------------|
|--2----7---|------------------------|
|--2----5---|--5----3---3-2-0---0----|
|--0----3---|--5----3---------3------|
|-----------|--3----1-------------3--|

repeat 3x

Main riff: 04:38

"I do it a lot..."
|----------------|---------------|
|----------------|---------------|
|--4---3---------|---------------|
|--4---3---2--5--|-4---3---3--2--|
|--2---1---0--5--|-4---3---3--2--|
|-------------3--|-2---1---1--0--|

Repeat 3x

End song: 05:06

Like us on Facebook.....
-> Loading Time :0.0201 sec