Jaundiced Eye Tabs & Lyrics by NOFX

Jaundiced Eye

guitar tabs lyrics

NOFX

Album : S&M Airlines albums i own PlayStop


JAUNDICED EYE by NOFX. Album: S&M Airlines (1989) 1/
A=Al Bino B=El Hefe A&B=both guitars
:
# intro #A *=play 12X * /=slide up
E---------------------------12-------|
B------------------------------------|
G------*--------*------/7--------9---|
D--10-7-----10-7---------------------|
A--10-7-----10-7---------------------|
E---8-5------8-5---------------------|

# intro #B *=play 12X
E------------------------------------|
B------------------------------------|
G------*--------*--------*--------*--|
D--10-7-----10-7-----10-7-----10-7---|
A--10-7-----10-7-----10-7-----10-7---|
E---8-5------8-5------8-5------8-5---|
:
# intro2 #A X2 *=play 12X
E-------------------------------------------------|
B-------------------------------------------------|
G------*----------------------*-------------------|
D--10-7-------------------10-7--------------------|
A--10-7-------------------10-7--------------------|
E---8-5--------------------8-5--------------------|
# intro2 #B X2 /=slide up \=slide down ()=play only first time
E-------------------------------------------------|
B-------------------------------------------------|
G-------------------------------------------------|
D-------------------------------------------------|
A-----7-5-7/8---10-8-10/12---7-5-7/8--(10-8\7-7)--|
E-------------------------------------------------|
:
# intro3 #A&B ()=play only first time
E---------------------------------------------------|
B---------------------------------------------------|
G---9-7-9-10---12-10-12-14---9-7-9-10--(12-10-9-9)--|
D---9-7-9-10---12-10-12-14---9-7-9-10--(12-10-9-9)--|
A---7-5-7--8---10--8-10-12---7-5-7--8--(10--8-7-7)--|
E---------------------------------------------------|
:
# intro4 #A *=play 12X
E-------------------------------------------------------------------|
B-------------------------------------------------------------------|
G------*---------------*---------------*---------------*------------|
D--10-7------------10-7------------10-7------------10-7-------------|
A--10-7------------10-7------------10-7------------10-7-------------|
E---8-5-------------8-5-------------8-5-------------8-5-------------|
# intro4 #B *=play 6X #=play 12X
E-------------------------------------------------------------------|
B-------------------------------------------------------------------|
G------*---------------*---------------*---------------#------------|
D--10-7---12-12-10-10-7---12-12-10-10-7---12-12-10-10-7-------------|
A--10-7---12-12-10-10-7---12-12-10-10-7---12-12-10-10-7-------------|
E---8-5-------------8-5-------------8-5-------------8-5-------------|
:
# intro5 #A&B X2 ^=pause
E----------------------------------------|
B----------------------------------------|
G------------------------^-^-^-^-^-------|
D--------------------7--7-7-7-7-7--7-7---|
A---10-8---7-8-7-5-3-7--7-7-7-7-7--7-7---|
E--------------------5--5-5-5-5-5--5-5---|




JAUNDICED EYE
# intro5-part2 #A ^=pause
E----------------------------------------|
B----------------------------------------|
G------------------------^-^-^-^-^-------|
D---3-------------10-7--7-7-7-7-7--7-7---|
A---3-------------10-7--7-7-7-7-7--7-7---|
E---1--------------8-5--5-5-5-5-5--5-5---|
# intro5-part2 #B ^=pause
E----------------------------------------|
B----------------------------------------|
G------------------------^-^-^-^-^-------|
D--------------------7--7-7-7-7-7--7-7---|
A---10-8---7-8-7-5-3-7--7-7-7-7-7--7-7---|
E--------------------5--5-5-5-5-5--5-5---|
:
# intro5-part3 #A
E----------------------------------|
B----------------------------------|
G------------------5-7-------------|
D---3--------------5-7-------------|
A---3--------------3-5-------------|
E---1------------------------------|
# intro5-part3 #B
E----------------------------------|
B----------------------------------|
G----------------------------------| > then play intro4A or intro4B.
D----------------------------------|
A---10-8---7-8-7-5-3-8---7-8-7-5---|
E----------------------------------|
:
# intro6 #A *=play 12X
E-------------------------------------------------------------------|
B-------------------------------------------------------------------|
G------*---------------*---------------*---------------*------------|
D--10-7------------10-7------------10-7------------10-7-------------|
A--10-7------------10-7------------10-7------------10-7-------------|
E---8-5-------------8-5-------------8-5-------------8-5-------------|
# intro6 #B *=play 6X
E-------------------------------------------------------------------|
B-------------------------------------------------------------------|
G------*---------------*---------------*----------------------------|
D--10-7---12-12-10-10-7---12-12-10-10-7---12-12-10-10---------------|
A--10-7---12-12-10-10-7---12-12-10-10-7---12-12-10-10-8---7-8-7-5---|
E---8-5-------------8-5-------------8-5-------------8---------------|
:
# end-intro #A&B *=play 12X (rhythm tightens)
E---------------------------------------|
B---------------------------------------|
G------*--------*--------*--------*-----|
D--10-7-----10-7-----10-7-----10-7------|
A--10-7-----10-7-----10-7-----10-7------|
E---8-5------8-5------8-5------8-5------|
:
# pre-verse #A
E--------------------------------|
B--------------------------------|
G------------------6-4-6-4-7-6---|
D--------------------------------|
A---12---------------------------|
E--------------------------------|
# pre-verse #B
E--------------------------------|
B--------------------------------|
G--------------------------------|
D--------------------------------| >>>>>>>to next page...
A---0----------------------------|
E--------------------------------|


# verse #A X4 *=play 4X palm-muted (Black is so beautiful...)
E--------------------------------------------------|
B--------------------------------------------------|
G------*-----*-----*-----*-----------6-4-6-4-7-6---|
D---9-9---9-9---9-9---9-9--------------------------|
A---9-9---9-9---9-9---9-9--12----------------------|
E---7-7---7-7---7-7---7-7--------------------------|
# verse #B X4 *=play 4X palm-muted # pre-chorus #A&B
E--------------------------------------------------| E-------|
B--------------------------------------------------| B-------|
G------*-----*-----*-----*-------------------------| G----*--|
D---9-9---9-9---9-9---9-9--------------------------| D--10---| *=play
A---9-9---9-9---9-9---9-9---0----------------------| A--10---| 16X
E---7-7---7-7---7-7---7-7--------------------------| E---8---|
:
# chorus #A&B (So how can say...) *=play 6X #=play 10X
E--------------------------------------------------------------|
B--------------------------------------------------------------|
G---------------5-----------5-7-7-7-5-7-5--*---*----*---*---#--|
D---5-7-7-7-7-7-5-3-3-3-3-3-5-7-7-7-5-7-5-7---7---10---5---3---|
A---5-7-7-7-7-7-3-3-3-3-3-3-3-5-5-5-3-5-3-7---7---10---5---3---|
E---3-5-5-5-5-5---1-1-1-1-1---------------5---5----8---3---1---|
:
# bridge #A /=slide up
E-----------------------------------------------------------------------|
B-----------------------------------------------------------------------|
G------14-13-12------12-11-10------12-14------------------6-4-6-4-7-6---|
D------14-13-12------12-11-10------12-14--------------------------------|
A---0--12-11-10---0--10--9--8---0--10-12/14---0---0---------------------|
E-----------------------------------------------------------------------|
# bridge #B /=slide up
E-----------------------------------------------------------------------|
B-----------------------------------------------------------------------|
G------14-13-12------12-11-10------12-14--------------------------------|
D------14-13-12------12-11-10------12-14--------------------------------|
A---0--12-11-10---0--10--9--8---0--10-12/14---0---0---------------------|
E-----------------------------------------------------------------------|
:
Play verseA or verseB and pre-chorusA&B.
:
# chorus2 #A *=play 6X #=play 10X
E----------------------------------------------------------------------------|
B--------/mute-\-------/mute-\---/m--\-------/--------palm-mute-----------\--|
G----------------5-------------5-7-7-7-5-7-5--*------*-----*--------*------#-|
D---5-7--7-7-7-7-5--3--3-3-3-3-5-7-7-7-5-7-5-7------7------10------5------3--|
A---5-7--7-7-7-7-3--3--3-3-3-3-3-5-5-5-3-5-3-7------7------10------5------3--|
E---3-5--5-5-5-5----1--1-1-1-1---------------5------5-------8------3------1--|
# chorus2 #B *=play 6X #=play 10X
E----------------------------------------------------------------------------|
B----------------------------------/m--\-----m-----------------------------#-|
G--------------------------------7-7-7-5-7-5--*--------------------------10--|
D--------------------------------7-7-7-5-7-5-7---------------------------10--|
A---10-8--7-8-7-5-3-8--7-8-7-5-3-5-5-5-3-5-3-7------7----9-10--12--10-12--8--|
E--------------------------------------------5-------------------------------|
:
Play chorusA&B.
:
# bridge2 #A&B X2 /=slide up
E-------------------------------------------------|
B-------------------------------------------------|
G------14-13-12------12-11-10------12-14----------|
D------14-13-12------12-11-10------12-14----------|
A---0--12-11-10---0--10--9--8---0--10-12/14---0---|
E-------------------------------------------------|
JAUNDICED EYE

# outro #A
E-------------------------------------------|
B-------------------------------------------|
G--10----------5-7--------------------------|
D--10----------5-7---------10-7-7-7-7-7-7---|
A---8----------3-5---------10-7-7-7-7-7-7---|
E---------------------------8-5-5-5-5-5-5---|
# outro #B
E-------------------------------------------|
B-------------------------------------------|
G-------------------------------------------|
D-------------------------------------------|
A---8--7-8-7-5-3-8--7-8-7-5-3-0-0-0-0-0-0---|
E-------------------------------------------|

Like us on Facebook.....
-> Loading Time :0.0585 sec