Ineffable King of Darkness Tabs & Lyrics by Dark Funeral

Ineffable King of Darkness

guitar tabs lyrics

Dark Funeral

Album : Vobiscum Satanas black metal PlayStop


Band- Dark Funeral
Song- Ineffable King Of darkness

Drum intro. Guitar begins at (0:02). Plays this 4 times:
e|--------------------------------------|
B|--------------------------------------|
G|--------------------------------------|
D|-3-3-4-3-8---8\7-8--3-3-4-3-8-8-9-(9)-|
A|-1-1-2-1-6---6\5/6--1-1-2-1-6-6-7-(7)-|
E|--------------------------------------|


6x
e|----------------------------------------------------|
B|----------------------------------------------------|
G|----------------------------------------------------|
D|-33333333333333333333333336666666666666666666666666-|
A|-11111111111111111111111114444444444444444444444444-|
E|----------------------------------------------------|
I am one with Satan /I am the horned beast.
I am thy mighty emperor,/Ruler of the dark domain.
My body is a temple,/Wherein all demons dwell.
A pantheon of flesh am I
Am I.
2x
e|--------------------------------------------------------------|
B|--------------------------------------------------------------|
G|--------------------------------------------------------------|
D|-55555555555555444444--------44555555555555448888888333333344-|
A|-333333333333332222225544444422333333333333226666666111111122-|
E|---------------------33222222---------------------------------|
2nd time: Hail me the horned one I am the beast

4x
e|----------------------------------------------------|
B|----------------------------------------------------|
G|----------------------------------------------------|
D|-33333333333333333333333336666666666666666666666666-|
A|-11111111111111111111111114444444444444444444444444-|
E|----------------------------------------------------|
I am the truth /I am everything
Wherever life is born/I am the flame
Wherever death will strike/I am the knife
Wherever evil dwells /I am the one behind

4x
e|--------------------------------------|
B|--------------------------------------|
G|--------------------------------------|
D|-3-3-4-3-8---8\7-8--3-3-4-3-8-8-9-(9)-|
A|-1-1-2-1-6---6\5/6--1-1-2-1-6-6-7-(7)-|
E|--------------------------------------|


e|---------------------------------------|
B|---------------------------------------|
G|-3---------------------------------(3)-|
D|-3---------------------------------(3)-|
A|-1---------------------------------(1)-|
E|---------------------------------------|
INFRONT OF THE INEFFABLE KING OF DARKNESS:
YOU SHALL DIE !!!

e|------------------------------------------------|
B|------------------------------------------------|
G|------------------------------------------------|
D|-3333333333333333333333344444444444444444444444-|
A|-1111111111111111111111122222222222222222222222-|
E|------------------------------------------------|
DIE DIE DIE DIE DIE DIE DIE
6x
e|----------------------------------------------------|
B|----------------------------------------------------|
G|----------------------------------------------------|
D|-33333333333333333333333336666666666666666666666666-|
A|-11111111111111111111111114444444444444444444444444-|
E|----------------------------------------------------|
I am one with Satan /I am the horned beast.
I am thy mighty emperor,/Ruler of the dark domain.
My body is a temple,/Wherein all demons dwell.
A pantheon of flesh am I
6x
e|--------------------------------------------------------------|
B|--------------------------------------------------------------|
G|--------------------------------------------------------------|
D|-55555555555555444444--------44555555555555448888888333333344-|
A|-333333333333332222225544444422333333333333226666666111111122-|
E|---------------------33222222---------------------------------|
2nd time: Hail me the horned one I am the beast



e|-----------------------------------------
B|------------------------------------------
G|----------------------------------------
D|-5----------------------------------------
A|-3-----------------------------------------
E|----------------------------------------
Weird ending using a lot of feedback and the following lyrics:
Rege Satanas, Ave Satanas, Hail Satan!
Rege Satanas, Ave Satanas, Hail Satan!

Like us on Facebook.....
-> Loading Time :0.0107 sec