I Wanna Be a Drug-Sniffing Dog Tabs & Lyrics by Lard

I Wanna Be a Drug-Sniffing Dog

guitar tabs lyrics

Lard

Album : Pure Chewing Satisfaction lard PlayStop


This is first guitar tab only.
Main riff (intro verse)
|----------------------------|
|----------------------------|
|----------------------------|
|----------------------------|
|---5---5---5---5---5-8-9-10-|
|-333-333-333-333-333-6-7- 8-|

chorus (riff 1) x2 (riff 2)

|------------------| |---------------------------------------------|
|------------------| Main |---------------------------------------------|
|------------------| riff |-10-5--3-3/10-5--3-3-10-5--3-3/10-5----------|
|------------------| |-10-5--3-3/10-5--3-3-10-5--3-3/10-5----------|
|-8-8-8------------| |- 8-3--1-1/ 8-3--1-1/ 8-3--1-1/ 8-3----------|
|-6-6-6----7-7-8\5-| |-------------------------------------7-7-8\5-|

bridge 1
Pm........x6.......
|----------|-----------|
|----------|-----------|
|----------|-----------|
|----------|-----------|
|--------7-|--------7--|
|-55555555-|-55555555--|

Bridge 2
(tapping) x3 \ x3
|------------|-------------------| | |------------|---------|
|------------|-------------------| | |------------|---------|
|------------|---------10-5-10-3-| | |------------|---------| Main
|------------|---------10-5-10-3-| |- x4|------------|-8-8-8-8-| riff
|---------23-|--------- 8-3- 8-1-| | |---------23-|-8-8-8-8-|
|-23232323---|-23232323----------| | |-23232323---|-6-6-6-6-|
/

Intro
Verse
Chorus
main riff
Bridge 1
verse
chorus riff 2 only
bridge 2
verse
chorus


Like us on Facebook.....
-> Loading Time :0.0070 sec