I Need You Tabs & Lyrics by Tommy Lee

I Need You

guitar tabs lyrics

Tommy Lee

Album : TommyLand: The RidePlayStop


I couldn't find any tabs for this song, and my love for Andrew McMahon is so great that
needed to be done. I don't really do solos, so I know it's not perfect, but it gets the
of it.

I Need You
Tommy Lee feat. Andrew McMahon
Tommyland: The Ride

Standard Tuning


Fm G# Gsus A# Cm D#
E--------------------------------|
B------------------4-------------|
G------------------5---8---------|
D--3---6---5---8---5---8---------|
A--3---6---6---8---3---6---------|
E--1---4---3---6-----------------|

Fm G# Gsus A#
I need you, I need so much
Fm G# Gsus A#
I need you, get me outta this place
Fm G# Gsus A# G#
I need you, With the lightening this close I can see
Gsus A# G#
There's so much in this world make believe,
Gsus A# G#
And this ticking clock isn't for me
Gsus A# Fm Gsus G#
And still nobody knew I need you


Fm G# Gsus A#
I need you, in my blacker days
Fm G# Gsus A#
I need you, with the walls coming down
Fm G# Gsus A# G#
I need you, Through this hole in my chest I can feel,
Gsus A# G#
That so much of this world isn't real
Gsus A# G#
And there's some things that you cannot steal
Gsus A# G#
Tell me what can I do I need you


Cm
Then the sun would rise
D#
in the jasmine skies
A# Fm
and I lie here awake in your bed
G# D#
Sometimes I don't remember
A#
Why can't I forget

I need you


E--11-- 10---10-- 10-10--10--10--10-11-11-11 10-11 15----15s18--|
B-----8----8----8------8----8 --8-----8--8------------11--------|
G---------------------------------------------------------------|
D---------------------------------------------------------------|
A---------------------------------------------------------------|
E---------------------------------------------------------------|


G# Gsus A# G#
I need you, There's so much in this world that is true
Gsus A# G#
No, not much I'm not willing to do
Gsus A#
I can not be without you
Fm Gsus G#
I need you

I need you


Fm G# Gsus A#
I need you x7

Like us on Facebook.....
-> Loading Time :0.0236 sec