Human Target Tabs & Lyrics by Six Feet Under

Human Target

guitar tabs lyrics

Six Feet Under

Album : Maximum Violence (bonus disc: Recorded Live on Tour Oct. 1999)PlayStop


Tabbed by:THE SANDMAN
Email:ryan5@iamwasted.com



Tunning "D"G"C"F"A"D"


Riff 1 x3 x1
|------------------------------|-------------------------------|

|------------------------------|-------------------------------|
|------------------------------|-------------------------------|
|------------------------6-----|-------------------------------|
|------------------------4--5--|-------------------------------|
|--0-0-0-0-0--3-3-3-3-3--4--3--|--0-0-0-0-0--1-1-1-1-1--1-1-1--|
. . . . . . . . . . . . . . . . . . . . . . .

Riff 2
|-----------------------------------------------------|
|-----------------------------------------------------|
|-----------------------------------------------------|
|-----------------------------------------------------|
|----------2x---------------------2---------3----3----|
|--0-0-0-0-0x-------------0-0-0-0-0----0-0--1----1----|
| . . . . . . . . . . |
| |
|-----------------------------------------------------|
|-----------------------------------------------------|
|-----------------------------------------------------|
|-------------------------------------------3----3----|
|----------2x---------------------2---------1----1----|
|--0-0-0-0-0x-------------0-0-0-0-0----0-0--1----1----|
. . . . . . . . . .

Riff 3
|-------------------------------------------|
|-------------------------------------------|
|-------------------------------------------|
|-------------------------------------------|
|-------------------------------------------|
|--0-0-0-0-0-0-4-4-3-3-3-3-1-1-1-1-1-1-1-1--|


Riff 4
|-------------------------------------------|
|-------------------------------------------|
|-------------------------------------------|
|-------------------------------------------|
|-------------------------------------------|
|--0-0-0-0-0-0-4-4-3-3-3-3-4-4-6-6-6-6-6-6--|


this song is easy as shit

Like us on Facebook.....
-> Loading Time :0.0122 sec