Hollowman Tabs & Lyrics by Entombed

Hollowman

guitar tabs lyrics

Entombed

Album : Wolverine Blues death metal PlayStop



HOLLOWMAN
As recorded by Entombed
(From the 1993 Album WOLVERINE BLUES)

Transcribed by The Foreverlorn




Gtr I (C F Bb Eb G C) - 'Uffe'
Gtr II (C F Bb Eb G C) - 'Alex'

Intro
Q=130
N.C.
4/4
Gtr I
Wx2 H. Q
|------------|--------------|
|------------|--------------|
|------------|--------------|
|------------|--------------|
|------------|--------------|
|------------|---------15\--|


Guitar Enters
N.C.G5A5 D5E5 G5Bb5 G5A5 E5 G5Bb5
4/4 4/8 4/4 4/8
PM| PM PM|
E E E E +E E E +E E E E E E E E E +E E E +E E E E E
|---------------------|---------|---------------------|---------|
|---------------------|---------|---------------------|---------|
|---------------------|---------|---------------------|---------|
|-----5-7-(7)-0-2-(2)-|-5-8---8-|-----5-7-(7)-0-2-(2)-|-5-8-8-8-|
|-----5-7-(7)-0-2-(2)-|-5-8---8-|-----5-7-(7)---2-(2)-|-5-8-8-8-|
|-0-0-3-5-(5)---0-(0)-|-3-6-6-6-|-0-0-3-5-(5)---0-(0)-|-3-6-6-6-|


Lead: Cederlund
N.C.G5 A5 D5/E5 G5 Bb5
4/4 4/8
Gtr II
Q E Q Q E +E. +E. S S
|-----15-12-----15---15b17==|=(15)---(15)r==15-12-|
|---------------------------|---------------------|
|---------------------------|---------------------|
|---------------------------|---------------------|
|---------------------------|---------------------|
|---------------------------|---------------------|
|
| Gtr I
| PM|
| E E E E +E E E +E E E E E
|---------------------------|---------------------|
|---------------------------|---------------------|
|---------------------------|---------------------|
|------5--7-(7)--0-2-(2)----|---5--8------8--8----|
|------5--7-(7)--0-2-(2)----|---5--8------8--8----|
|-0-0--3--5-(5)----0-(0)----|---3--6------6--6----|


G5 A5 E5 G5 Bb5
4/4 4/8
Q +Q +Q E E +E E E E
|---------------------------------|--------------------|
|-15---(15)b17====(15)r==12-------|------12--------12--|
|---------------------------14b16-|-(14)----14b16-(14)-|
|---------------------------------|--------------------|
|---------------------------------|--------------------|
|---------------------------------|--------------------|
|
| PM|
| E E E E +E E E +E E E E E
|---------------------------------|--------------------|
|---------------------------------|--------------------|
|---------------------------------|--------------------|
|--------5------7--(7)-0--2-(2)---|---5---8--8------8--|
|--------5------7--(7)----2-(2)---|---5---8--8------8--|
|--0-0---3------5--(5)----0-(0)---|---3---6--6------6--|


N.C. G5 A5 D5/E5 G5 Bb5
4/4 4/8
E E Q +E E E E +E E E S S
|-------------------------------|------------------|
|-15-12-15b17====(15)r12--------|------------------|
|------------------------14-----|------12----14-12-|
|---------------------------14--|-(14)----14-------|
|-------------------------------|------------------|
|-------------------------------|------------------|
|
| PM|
| E E E E +E E E +E E E E E
|-------------------------------|------------------|
|-------------------------------|------------------|
|-------------------------------|------------------|
|--------5-----7--(7)--0--2-(2)-|---5---8--8--8----|
|--------5-----7--(7)--0--2-(2)-|---5---8--8--8----|
|--0--0--3-----5--(5)-----0-(0)-|---3---6--6--6----|


G5 A5 E5 G5 Bb5
4/4 4/8
E +E S S E S S E E E E E E +E
|---------------------------------------|-15----17b18.5-(17)-|
|--------------------------------15-17--|----17--------------|
|-14b16==(14)-14r14-12-----12-14--------|--------------------|
|----------------------14---------------|--------------------|
|---------------------------------------|--------------------|
|---------------------------------------|--------------------|
|
| PM----|
| E E E E +E E E +E E E E E
|---------------------------------------|--------------------|
|---------------------------------------|--------------------|
|---------------------------------------|--------------------|
|--------------5-----7-(7)-----0--2-(2)-|--5--8--8--------8--|
|--------------5-----7-(7)--------2-(2)-|--5--8--8--------8--|
|--0-------0---3-----5-(5)--------0-(0)-|--3--6--6--------6--|


Verse
N.C. G5A5 E5 G5Bb5 G5A5 E5 G5Bb5
4/4 4/8 4/4 4/8
~~~~ PM PM PM| PM PM
+Q E E +E E E E E E E E E E E E +E E E E E E E E 3x
|-(17)-----------------|---------||--------------------|----------||
|----------------------|---------||o-------------------|---------o||
|----------------------|---------||--------------------|----------||
|--------5-7-(7)-7-----|-5-8---8-||------5-7-(7)-7-----|-5-8---8--||
|--------5-7-(7)-7-2---|-5-8-8-8-||o-----5-7-(7)-7-2---|-5-8-8-8-o||
|--------3-5-(5)-5-0---|-3-6-6-6-||--0-0-3-5-(5)-5-0---|-3-6-6-6--||
|
| PM-| PM PM PM| PM PM
| E E E E +E E E E E E E E E E E E +E E E E E E E E 3x
|----------------------|---------||--------------------|----------||
|----------------------|---------||o-------------------|---------o||
|----------------------|---------||--------------------|----------||
|--------5-7-(7)-7-----|-5-8---8-||------5-7-(7)-7-----|-5-8---8--||
|--------5-7-(7)-7-2---|-5-8-8-8-||o-----5-7-(7)-7-2---|-5-8-8-8-o||
|---0--0-3-5-(5)-5-0---|-3-6-6-6-||--0-0-3-5-(5)-5-0---|-3-6-6-6--||


Pre-Chorus
$ To Coda
N.C. E5 G5Bb5 N.C. E5 G5Bb5
4/4 4/8 4/4 4/8
PM| PM PM| PM
E E E E +E E E +E E E E E E E E E +E E E +E E E E E
||--------------------------|---------|-------------------------|----------||
||o-------------------------|---------|-------------------------|---------o||
||------12-14-(14)-14-------|---------|-----12-14-(14)-14-------|----------||
||--------------------2-(2)-|-5-8---8-|-------------------2-(2)-|-5-8---8--||
||o-------------------2-(2)-|-5-8-8-8-|-------------------2-(2)-|-5-8-8-8-o||
||--0-0---------------0-(0)-|-3-6-6-6-|-0-0---------------0-(0)-|-3-6-6-6--||
|
| PM| PM PM| PM
| E E E E +E E E +E E E E E E E E E +E E E +E E E E E
||--------------------------|---------|-------------------------|----------||
||o-------------------------|---------|-------------------------|---------o||
||--------------------------|---------|-------------------------|----------||
||--------------------2-(2)-|-5-8---8-|-------------------2-(2)-|-5-8---8--||
||o-----10-12-(12)-12-2-(2)-|-5-8-8-8-|-----10-12-(12)-12-2-(2)-|-5-8-8-8-o||
||--0-0---------------0-(0)-|-3-6-6-6-|-0-0---------------0-(0)-|-3-6-6-6--||


Lead: Hellid
N.C. G5A5 D5E5 G5Bb5
4/4 4/8
Gtr I
E E E E +E E E +E E E E E
|-----------------------------|-------------|
|------5--8---------8---------|-8------5--8-|
|-7b9-(7)---7b9-(7)---7b9-(7)-|---7b9-(7)---|
|-----------------------------|-------------|
|-----------------------------|-------------|
|-----------------------------|-------------|
|
| Gtr II
| PM--|
| E E E E +E E E +E E E E E
|-----------------------------|-------------|
|-----------------------------|-------------|
|-----------------------------|-------------|
|---------5-7---(7)-0-2---(2)-|-5-8----8--8-|
|---------5-7---(7)-0-2---(2)-|-5-8----8--8-|
|-0----0--3-5---(5)---0---(0)-|-3-6----6--6-|


G5A5 E5 G5 Bb5
4/4 4/8
E E E E +E E E E S +S +E E E
|-----------------------------|-----------------------|
|------5--8---------8------8--|-10b12==(10)r(10)-8----|
|-7b9-(7)---7b9-(7)---7b9-(7)-|--------------------9--|
|-----------------------------|-----------------------|
|-----------------------------|-----------------------|
|-----------------------------|-----------------------|
|
| PM--|
| E E E E +E E E +E E E E E
|-----------------------------|-----------------------|
|-----------------------------|-----------------------|
|-----------------------------|-----------------------|
|---------5-7---(7)-0-2---(2)-|--5------------8--8-8--|
|---------5-7---(7)---2---(2)-|--5------------8--8-8--|
|-0----0--3-5---(5)---0---(0)-|--3------------6--6-6--|


N.C. G5 A5 D5/E5 G5 Bb5
4/4 4/8
E E E E E E E E E E E E
|----------------------------------------|----------------|
|--------12--15--------12--15--------12--|-15-------------|
|-14b16-(14)----14b16-(14)----14b16-(14)-|----14b16-14-12-|
|----------------------------------------|----------------|
|----------------------------------------|----------------|
|----------------------------------------|----------------|
|
| PM---|
| E E E E +E E E +E E E E E
|----------------------------------------|----------------|
|----------------------------------------|----------------|
|----------------------------------------|----------------|
|-------------5--7-----(7)--0--2-----(2)-|--5--8-----8--8-|
|-------------5--7-----(7)--0--2-----(2)-|--5--8-----8--8-|
|--0------0---3--5-----(5)-----0-----(0)-|--3--6-----6--6-|


G5 A5 E5 G5 Bb5
4/4 4/8
E E E E +E E +E E E E E E
|----------------------------------|-------------|
|----------------------------------|-------------|
|-------12-14-(14)-14b16==(14)r14--|-14-12-------|
|-14-14----------------------------|----------14-|
|----------------------------------|-------14----|
|----------------------------------|-------------|
|
| PM|
| E E E E +E E E +E E E E E
|----------------------------------|-------------|
|----------------------------------|-------------|
|----------------------------------|-------------|
|--------5--7--(7)--0-------2--(2)-|--5--8--8--8-|
|--------5--7--(7)----------2--(2)-|--5--8--8--8-|
|--0--0--3--5--(5)----------0--(0)-|--3--6--6--6-|


Verse
D.S. al Coda
N.C. G5A5 E5 G5Bb5 G5A5 E5 G5Bb5
4/4 4/8 4/4 4/8
~~~~ PM PM PM| PM PM
+Q E E +E E E E E E E E E E E E +E E E E E E E E 3x
|----------------------|---------||--------------------|----------||
|----------------------|---------||o-------------------|---------o||
|----------------------|---------||--------------------|----------||
|-(14)---5-7-(7)-7-----|-5-8---8-||------5-7-(7)-7-----|-5-8---8--||
|--------5-7-(7)-7-2---|-5-8-8-8-||o-----5-7-(7)-7-2---|-5-8-8-8-o||
|--------3-5-(5)-5-0---|-3-6-6-6-||--0-0-3-5-(5)-5-0---|-3-6-6-6--||
|
| PM-| PM PM PM| PM PM
| E E E E +E E E E E E E E E E E E +E E E E E E E E 3x
|----------------------|---------||--------------------|----------||
|----------------------|---------||o-------------------|---------o||
|----------------------|---------||--------------------|----------||
|--------5-7-(7)-7-----|-5-8---8-||------5-7-(7)-7-----|-5-8---8--||
|--------5-7-(7)-7-2---|-5-8-8-8-||o-----5-7-(7)-7-2---|-5-8-8-8-o||
|---0--0-3-5-(5)-5-0---|-3-6-6-6-||--0-0-3-5-(5)-5-0---|-3-6-6-6--||


Interlude
&
Bb5 F5
4/4 4/8 4/4
Gtrs I, II
E E E E E E E E E E E E E E E E E E E E E E E E E E E E
|-----------------|---------|-----------------|-----------------|
|-----------------|---------|-----------------|-----------------|
|-----------------|---------|-----------------|-----------------|
|-8-8-8-8-8-8-8-8-|-8-8-8-8-|-8-8-8-8-8-8-8-8-|-8-8-8-8-8-8-8-3-|
|-8-8-8-8-8-8-8-8-|-8-8-8-8-|-8-8-8-8-8-8-8-8-|-8-8-8-8-8-8-8-3-|
|-6-6-6-6-6-6-6-6-|-6-6-6-6-|-6-6-6-6-6-6-6-6-|-6-6-6-6-6-6-6-1-|


Chorus
F5 E5 D5 C#5 F5
Gtr I
W +Q +Q +Q +Q
||--12---------------|-(12)---(12)b13====(12)r==(12)---|
||o------------------|---------------------------------|
||-------------------|---------------------------------|
||-------------------|---------------------------------|
||o------------------|---------------------------------|
||-------------------|---------------------------------|
|
| Gtr II
| E E E E E E E E E E E E E E E E
||-------------------|---------------------------------|
||o------------------|---------------------------------|
||-----------------7-|---7--7---7------6---6--6---6----|
||---3-3-3-2-2-2-2-7-|---7--7---7------6---6--6---6--3-|
||o--3-3-3-2-2-2-2-5-|---5--5---5------4---4--4---4--3-|
||---1-1-1-0-0-0-0---|-------------------------------1-|


1.
E5 D5 C#5 F5
W +Q +Q +Q +Q
|-12---------------|-(12)---(12)b13====(12)r==(12)-----||
|------------------|----------------------------------o||
|------------------|-----------------------------------||
|------------------|-----------------------------------||
|------------------|----------------------------------o||
|------------------|-----------------------------------||
|
| E E E E E E E E E E E E E E E E
|------------------|-----------------------------------||
|------------------|----------------------------------o||
|----------------7-|---7--7---7------6---6--6---6------||
|--3-3-3-2-2-2-2-7-|---7--7---7------6---6--6---6--3---||
|--3-3-3-2-2-2-2-5-|---5--5---5------4---4--4---4--3--o||
|--1-1-1-0-0-0-0---|-------------------------------1---||


Break
2.
D5 C#5 G5 F5 E5 G5 F5 E5
+Q +Q +Q +Q Q. Q. Q +W Q. Q. Q
|-(12)---(12)b13====(12)r==(12)---||--------------|------------|--------------|
|---------------------------------||--------------|------------|--------------|
|---------------------------------||--------------|------------|--------------|
|---------------------------------||-5----3----2--|-(2)--------|-5----3----2--|
|---------------------------------||-5----3----2--|-(2)--------|-5----3----2--|
|---------------------------------||-3----1----0--|-(0)--------|-3----1----0--|
|
| E E E E E E E E Q. Q. Q +W Q. Q. Q
|---------------------------------||--------------|------------|--------------|
|---------------------------------||--------------|------------|--------------|
|---7--7---7------6---6--6---6--6-||--------------|------------|--------------|
|---7--7---7------6---6--6---6--6-||-5----3----2--|-(2)--------|-5----3----2--|
|---5--5---5------4---4--4---4--4-||-5----3----2--|-(2)--------|-5----3----2--|
|---------------------------------||-3----1----0--|-(0)--------|-3----1----0--|


E5 G5 F5 E5
TP TPTPTPTPTPTPTP
S S S S S S S S H Q. Q. Q +W
|--------------------------|--------------|--------|
|--------------------------|--------------|--------|
|--------------------------|-----------9--|-(9)----|
|-------------------(2)----|-5----7-------|--------|
|-------------------(2)----|-5---------7--|-(7)----|
|--xS=xSxSxSxSxSxSx-(0)----|-3----5-------|--------|
|
| +W Q. Q. Q +W
|--------------------------|--------------|--------|
|--------------------------|--------------|--------|
|--------------------------|--------------|--------|
|-(2)----------------------|-5----3----2--|-(2)----|
|-(2)----------------------|-5----3----2--|-(2)----|
|-(0)----------------------|-3----1----0--|-(0)----|


Killer Interlude
E5
+W +H. Q Q E E E E E E +E E E E E E E E
|------------|----------------||-------------------|----------------------|
|------------|----------------||-------------------|----------------------|
|-(9)--------|-(9)------------||-------------------|----------------------|
|------------|----------------||---------------8-9-|-(9)-8-9-8----8-------|
|-(7)--------|-(7)------/14\--||--7---7-7-7-10-----|-----------10---10----|
|------------|----------------||-------------------|-------------------10-|
|
| +W +W +W +W
|------------|----------------||-------------------|----------------------|
|------------|----------------||-------------------|----------------------|
|------------|----------------||-------------------|----------------------|
|-(2)--------|-(2)------------||-(2)---------------|-(2)------------------|
|-(2)--------|-(2)------------||-(2)---------------|-(2)------------------|
|-(0)--------|-(0)------------||-(0)---------------|-(0)------------------|


E5
Q E E E E E E +E E E E E E E E
|-------------------|-------------------|
|-------------------|-------------------|
|-------------------|-----7-----9-------|
|---------------8-9-|-(9)---9-8---9-8-9-|
|--7---7-7-7-10-----|-------------------|
|-------------------|-------------------|
|
| +W +W
|-------------------|-------------------|
|-------------------|-------------------|
|-------------------|-------------------|
|-(2)---------------|-(2)---------------|
|-(2)---------------|-(2)---------------|
|-(0)---------------|-(0)---------------|


Q E E E E E E +E E E E E E E E
|-------------------|---------------------|
|-------------------|---------------------|
|-------------------|-------------------7-|
|---------------8-9-|-(9)-8-9-8----8------|
|--7---7-7-7-10-----|-----------10---10---|
|-------------------|---------------------|
|
| +W +W
|-------------------|---------------------|
|-------------------|---------------------|
|-------------------|---------------------|
|-(2)---------------|-(2)-----------------|
|-(2)---------------|-(2)-----------------|
|-(0)---------------|-(0)-----------------|


E5
Q E E E E E E +E E E E E E E E
|-----------------|-------------------------------------------|
|-----------------|-------------------------------------------|
|-9--9--9-7-9-7-6-|-(6)-7-6-----------9-----------------------|
|-----------------|---------7-8---------------8-------7-------|
|-----------------|-------------------------------------------|
|-----------------|-------------------------------------------|
|
| TPTPTPTPTPTPTPTPTPTPTPTPTPTPTPTP
| q H. H T T T T T T T T T T T T T T T T
|-----------------|-------------------------------------------|
|-----------------|-------------------------------------------|
|-----------------|-------------------------------------------|
|-2---------------|-------------------------------------------|
|-2---------------|-----------xSxSxSxSxSxSxSxSxSxSxSxSxSxSxSx-|
|-0---------------|-------------------------------------------|


E5
Q E E E E E E +E E E E E E E E
|-----------------|----------------------|
|-----------------|----------------------|
|-----------------|----------------------|
|-------------8-9-|-(9)-8-9-8----8-------|
|-7--7-7-7-10-----|-----------10---10----|
|-----------------|-------------------10-|
|
| W +W
|-----------------|----------------------|
|-----------------|----------------------|
|-----------------|----------------------|
|-2---------------|-(2)------------------|
|-2---------------|-(2)------------------|
|-0---------------|-(0)------------------|


Q E E E E E E +E E E E E S S Q
|-----------------|--------------------|
|-----------------|--------------------|
|-----------------|-----7---7-9-----9--|
|-------------8-9-|-(9)---9-----7h9----|
|-7--7-7-7-10-----|--------------------|
|-----------------|--------------------|
|
| W +W
|-----------------|--------------------|
|-----------------|--------------------|
|-----------------|--------------------|
|-2---------------|-(2)----------------|
|-2---------------|-(2)----------------|
|-0---------------|-(0)----------------|


E5
Q E E E E E E +E E E E E E E E Q E E E E E E +E E E E E E E E
|-----------------|---------------------|-----------------|-------------------|
|-----------------|---------------------|-----------------|-------------------|
|-----------------|-------------------7-|-9--9--9-7-9-7-6-|-(6)-7-6-----9-----|
|-------------8-9-|-(9)-8-9-8----8------|-----------------|---------7-8---8-7-|
|-7--7-7-7-10-----|-----------10---10---|-----------------|-------------------|
|-----------------|---------------------|-----------------|-------------------|
|
| W +W q H. W
|-----------------|---------------------|-----------------|-------------------|
|-----------------|---------------------|-----------------|-------------------|
|-----------------|---------------------|-----------------|-------------------|
|-2---------------|-(2)-----------------|-2---------------|-------------------|
|-2---------------|-(2)-----------------|-2---------------|-------------------|
|-0---------------|-(0)-----------------|-0---------------|-------------------|


N.C.
Gtrs I, II
Q E E E E E E +E E E E E E E E Q E E E E E E +E E E E E E E E
|-----------------|----------------------|-----------------|-------------------|
|-----------------|----------------------|-----------------|-------------------|
|-----------------|----------------------|-----------------|-----7-----9-------|
|-------------8-9-|-(9)-8-9-8----8-------|-------------8-9-|-(9)---9-8---9-8-9-|
|-7--7-7-7-10-----|-----------10---10----|-7--7-7-7-10-----|-------------------|
|-----------------|-------------------10-|-----------------|-------------------|


N.C. E5
Gtr I
Q E E E E E E +E E E E E E E E Q E E E E E E +E E E E E E E E
|-----------------|---------------------|-----------------|-------------------|
|-----------------|---------------------|-----------------|-------------------|
|-----------------|-------------------7-|-9--9--9-7-9-7-6-|-(6)-7-6-----9-----|
|-------------8-9-|-(9)-8-9-8----8------|-----------------|---------7-8---8-7-|
|-7--7-7-7-10-----|-----------10---10---|-----------------|-------------------|
|-----------------|---------------------|-----------------|-------------------|
|
| Gtr II
| Q E E E E E E +E E E E E E E E q H. W
|-----------------|---------------------|-----------------|-------------------|
|-----------------|---------------------|-----------------|-------------------|
|-----------------|-------------------7-|-----------------|-------------------|
|-------------8-9-|-(9)-8-9-8----8------|-2---------------|-------------------|
|-7--7-7-7-10-----|-----------10---10---|-2---------------|-------------------|
|-----------------|---------------------|-0---------------|-------------------|


Killer Interlude Variation
E5 D5 C#5 G5Bb5 E5 D5 C#5 G5Bb5
Q E E E E E E +E E E E E E E E Q E E E E E E +E E E E E E E E 4x
||-----------------|-------------------|----------------|---------------------||
||o----------------|-------------------|----------------|--------------------o||
||--9--9-9-7-9-7-6-|-(6)-7-6-----9-----|-9--9-9-7-9-7-6-|-(6)-7-6-----9-------||
||-----------------|---------7-8---8-7-|----------------|---------7-8---8-7---||
||o----------------|-------------------|----------------|--------------------o||
||-----------------|-------------------|----------------|---------------------||
|
| Q E E E E E E +E E E E E E E E Q E E E E E E +E E E E E E E E 4x
||-----------------|-------------------|----------------|---------------------||
||o----------------|-------------------|----------------|--------------------o||
||---------7-7-7-6-|-(6)-6-6-----------|--------7-7-7-6-|-(6)-6-6-------------||
||--2--2-2-7-7-7-6-|-(6)-6-6-5-8-8-8-8-|-2--2-2-7-7-7-6-|-(6)-6-6-5-8-8-8-8---||
||o-2--2-2-5-5-5-4-|-(4)-4-4-5-8-8-8-8-|-2--2-2-5-5-5-4-|-(4)-4-4-5-8-8-8-8--o||
||--0--0-0---------|---------3-6-6-6-6-|-0--0-0---------|---------3-6-6-6-6---||


Breakdown
E5
4/8 4/4 4/8
W +H +W +H
|----------|--------|------------|--------|
|----------|--------|------------|--------|
|----------|--------|------------|--------|
|-2--------|-(2)----|-(2)--------|-(2)----|
|-2--------|-(2)----|-(2)--------|-(2)----|
|-0--------|-(0)----|-(0)--------|-(0)----|
|
| W +H +W +H
|----------|--------|------------|--------|
|----------|--------|------------|--------|
|----------|--------|------------|--------|
|-2--------|-(2)----|-(2)--------|-(2)----|
|-2--------|-(2)----|-(2)--------|-(2)----|
|-0--------|-(0)----|-(0)--------|-(0)----|


E5
4/4 4/8
S +S S +S +H. +H
|-12----(12)-12----(12)-(12)------|-(12)----|
|-15b17-(15)-15b17-(15)-(15)------|-(15)----|
|---------------------------------|---------|
|---------------------------------|---------|
|---------------------------------|---------|
|---------------------------------|---------|
|
| W +H
|---------------------------------|---------|
|---------------------------------|---------|
|---------------------------------|---------|
|--2------------------------------|--(2)----|
|--2------------------------------|--(2)----|
|--0------------------------------|--(0)----|


4/4 4/8
S +S S +S +H. +H
|-15----(15)-15----(15)-(15)------|-(15)----|
|-18b20-(18)-18b20-(18)-(18)------|-(18)----|
|---------------------------------|---------|
|---------------------------------|---------|
|---------------------------------|---------|
|---------------------------------|---------|
|
| +W +H
|---------------------------------|---------|
|---------------------------------|---------|
|---------------------------------|---------|
|-(2)-----------------------------|--(2)----|
|-(2)-----------------------------|--(2)----|
|-(0)-----------------------------|--(0)----|


Verse
N.C.G5A5 E5 G5Bb5 G5A5 E5 G5Bb5
4/4 4/8 4/4 4/8
PM| PM|
E E E E +E E E +E E E E E E E E E +E E E +E E E E E
||----------------------|---------|---------------------|----------||
||o---------------------|---------|---------------------|---------o||
||----------------------|---------|---------------------|----------||
||------5-7-(7)-7-2-(2)-|-5-8-8-8-|-----5-7-(7)-7-2-(2)-|-5-8-8-8--||
||o-----5-7-(7)-7-2-(2)-|-5-8-8-8-|-----5-7-(7)-7-2-(2)-|-5-8-8-8-o||
||--0-0-3-5-(5)-5-0-(0)-|-3-6-6-6-|-0-0-3-5-(5)-5-0-(0)-|-3-6-6-6--||


Pre-Chorus
N.C. E5 G5Bb5 N.C. E5 G5Bb5
4/4 4/8 4/4 4/8
Gtr I
PM| PM PM| PM
E E E E +E E E +E E E E E E E E E +E E E +E E E E E
||--------------------------|---------|-------------------------|----------||
||o-------------------------|---------|-------------------------|---------o||
||------12-14-(14)-14-------|---------|-----12-14-(14)-14-------|----------||
||--------------------2-(2)-|-5-8---8-|-------------------2-(2)-|-5-8---8--||
||o-------------------2-(2)-|-5-8-8-8-|-------------------2-(2)-|-5-8-8-8-o||
||--0-0---------------0-(0)-|-3-6-6-6-|-0-0---------------0-(0)-|-3-6-6-6--||
|
| Gtr II
| PM| PM PM| PM
| E E E E +E E E +E E E E E E E E E +E E E +E E E E E
||--------------------------|---------|-------------------------|----------||
||o-------------------------|---------|-------------------------|---------o||
||--------------------------|---------|-------------------------|----------||
||--------------------2-(2)-|-5-8---8-|-------------------2-(2)-|-5-8---8--||
||o-----10-12-(12)-12-2-(2)-|-5-8-8-8-|-----10-12-(12)-12-2-(2)-|-5-8-8-8-o||
||--0-0---------------0-(0)-|-3-6-6-6-|-0-0---------------0-(0)-|-3-6-6-6--||


Interlude
Bb5 F5
4/4 4/8 4/4
Gtrs I, II
E E E E E E E E E E E E E E E E E E E E E E E E E E E E
|-----------------|---------|-----------------|-----------------|
|-----------------|---------|-----------------|-----------------|
|-----------------|---------|-----------------|-----------------|
|-8-8-8-8-8-8-8-8-|-8-8-8-8-|-8-8-8-8-8-8-8-8-|-8-8-8-8-8-8-8-3-|
|-8-8-8-8-8-8-8-8-|-8-8-8-8-|-8-8-8-8-8-8-8-8-|-8-8-8-8-8-8-8-3-|
|-6-6-6-6-6-6-6-6-|-6-6-6-6-|-6-6-6-6-6-6-6-6-|-6-6-6-6-6-6-6-1-|


Out-Chorus
F5 E5 D5 C#5 F5
Gtr I
W +Q +Q +Q +Q
||--12---------------|-(12)---(12)b13====(12)r==(12)---|
||o------------------|---------------------------------|
||-------------------|---------------------------------|
||-------------------|---------------------------------|
||o------------------|---------------------------------|
||-------------------|---------------------------------|
|
| Gtr II
| E E E E E E E E E E E E E E E E
||-------------------|---------------------------------|
||o------------------|---------------------------------|
||-----------------7-|---7--7---7------6---6--6---6----|
||---3-3-3-2-2-2-2-7-|---7--7---7------6---6--6---6--3-|
||o--3-3-3-2-2-2-2-5-|---5--5---5------4---4--4---4--3-|
||---1-1-1-0-0-0-0---|-------------------------------1-|


E5 D5 C#5 F5
W +Q +Q +Q +Q
|-12---------------|-(12)---(12)b13====(12)r==(12)-----||
|------------------|----------------------------------o||
|------------------|-----------------------------------||
|------------------|-----------------------------------||
|------------------|----------------------------------o||
|------------------|-----------------------------------||
|
| E E E E E E E E E E E E E E E E
|------------------|-----------------------------------||
|------------------|----------------------------------o||
|----------------7-|---7--7---7------6---6--6---6------||
|--3-3-3-2-2-2-2-7-|---7--7---7------6---6--6---6--3---||
|--3-3-3-2-2-2-2-5-|---5--5---5------4---4--4---4--3--o||
|--1-1-1-0-0-0-0---|-------------------------------1---||


F5 E5 D5 C#5 F5
E +E +Q E +E +Q E +E +Q E +E +Q
||--13----(13)-(13)---12----(12)-(12)---|-10----(10)-(10)----9-----(9)--(9)---|
||o-16b18-(16)-(16)---15b17-(15)-(15)---|-13b15-(13)-(13)---12b14-(12)-(12)---|
||--------------------------------------|-------------------------------------|
||--------------------------------------|-------------------------------------|
||o-------------------------------------|-------------------------------------|
||--------------------------------------|-------------------------------------|
|
| E E E E E E E E E E E E E E E E
||--------------------------------------|-------------------------------------|
||o-------------------------------------|-------------------------------------|
||------------------------------------7-|--7------7----7--6--6------6----6----|
||---3------3----3--2--2------2----2--7-|--7------7----7--6--6------6----6--3-|
||o--3------3----3--2--2------2----2--5-|--5------5----5--4--4------4----4--3-|
||---1------1----1--0--0------0----0----|-----------------------------------1-|


E5 D5 C#5 F5
E +E +Q E +E +Q E +E +Q E +E +Q
|-13----(13)-(13)---12----(12)-(12)---|-10----(10)-(10)----9-----(9)--(9)-----||
|-16b18-(16)-(16)---15b17-(15)-(15)---|-13b15-(13)-(13)---12b14-(12)-(12)----o||
|-------------------------------------|---------------------------------------||
|-------------------------------------|---------------------------------------||
|-------------------------------------|--------------------------------------o||
|-------------------------------------|---------------------------------------||
|
| E E E E E E E E E E E E E E E E
|-------------------------------------|---------------------------------------||
|-------------------------------------|--------------------------------------o||
|-----------------------------------7-|--7------7----7--6--6------6----6------||
|--3------3----3--2--2------2----2--7-|--7------7----7--6--6------6----6--3---||
|--3------3----3--2--2------2----2--5-|--5------5----5--4--4------4----4--3--o||
|--1------1----1--0--0------0----0----|-----------------------------------1---||


Outro Play
H.=H
E5
E +E E E E E E E
|--------------------------------------|
|-15b17r(15)---12------12--------------|
|-------------------14----14---12------|
|-----------------------------------14-|
|--------------------------------------|
|--------------------------------------|
|
| |------3-------| |----3----|
| Q Q Q Q Q Q
|--------------------------------------|
|--------------------------------------|
|--------------------------------------|
|--2---------2----2-----2----2----2----|
|--2---------2----2-----2----2----2----|
|--0---------0----0-----0----0----0----|


~~~~~~~~~~~~~~~~~~~~~~~~~~~~~~~~
E E E E E E E E Q Q Q Q Q Q Q Q
|---------------------------------|-----------------|------------------|
|-----------------12--------------|-----------------|------------------|
|-15-14---12----------------------|-----------------|------------------|
|--------------14-----------------|-----------------|------------------|
|--------------------14---13---12-|-----------------|------------------|
|---------------------------------|-12--12--12--12--|-12--12--12--12---|
|
| |----3----| |----3----|
| Q Q Q Q Q Q Q Q Q Q Q Q Q Q
|---------------------------------|-----------------|------------------|
|---------------------------------|-----------------|------------------|
|---------------------------------|-----------------|------------------|
|--2----2----2-----2----2----2----|--2---2---2---2--|--2---2---2---2---|
|--2----2----2-----2----2----2----|--2---2---2---2--|--2---2---2---2---|
|--0----0----0-----0----0----0----|--0---0---0---0--|--0---0---0---0---|


E5
Gtrs I, II
W +H. E E
|----------|----------------*|
|----------|----------------*|
|----------|----------------*|
|-2--------|-(2)------14\---*|
|-2--------|-(2)------14\---*|
|-0--------|-(0)------12\---*|



Duration Legend
---------------
W - whole; H - half; Q - quarter; E - 8th; S - 16th; T - 32nd; X - 64th; a - acciaccatura
+ - note tied to previous; . - note dotted; .. - note double dotted
Uncapitalized letters represent notes that are staccato (1/2 duration)
Irregular groupings are notated above the duration line
Duration letters will always appear directly above the note/fret number it represents the
duration for. Duration letters with no fret number below them represent rests. Multi-
bar rests are notated in the form Wxn, where n is the number of bars to rest for. Low
melody durations appear below the staff

Tablature Legend
----------------
h - hammer-on
p - pull-off
b - bend
pb - pre-bend
r - bend release (if no number after the r, then release immediately)
/\ - slide into or out of (from/to "nowhere")
s - legato slide
S - shift slide
- natural harmonic
[n] - artificial harmonic
n(n) - tapped harmonic
~ - vibrato
tr - trill
T - tap
TP - trem. picking
PM - palm muting
\n/ - tremolo bar dip; n = amount to dip
\n - tremolo bar down
n/ - tremolo bar up
/n\ - tremolo bar inverted dip
= - hold bend; also acts as connecting device for hammers/pulls
- volume swell (louder/softer)
x - on rhythm slash represents muted slash
o - on rhythm slash represents single note slash

Misc Legend
-----------
| - bar
|| - double bar
||o - repeat start
o|| - repeat end
*| - double bar (ending)
: - bar (freetime)
$ - Segno
& - Coda
Tempo markers - = BPM(8/16=s8/s16), where s8 = swing 8ths, s16 = swing 16ths



Like us on Facebook.....
-> Loading Time :0.0202 sec