High Rate Extinction Tabs & Lyrics by Crowbar

High Rate Extinction

guitar tabs lyrics

Crowbar

Album : Crowbar sludge PlayStop


HIGH RATE EXTINCTION - Crowbar - Crowbar
Version 1.0 - December 2001
Transcribed by Lalith Vipulananthan

Tuning (Low - High): B E D A


A1 Play 3 times
|----------------------------|
|----------------------------|

|----------------------------|
|-0-0-0-3~-----0-0-0-3~-3~---|
. . . . . .


A2
|------------------------------------|
|------------------------------------|
|----------------------------5-5-3-3-|
|-0-0-0-3~-----0-0-0-3~-3~---3-3-1-1-|
. . . . . . . . . .


Repeat A1 x 3, A2 x 5


B [1,3] [2] [4]
|----------------------------|-------------|-------------|
|-2--------------------------|-------------|-------------|
|-2--------5-6-5-------------|-----3-----3-|-----5-----3-|
|-0-----/6-----------/8-7----|-0-0-1-0-0-1-|-0-0-3-0-0-1-|
. . . . . . . .

Repeat B


Repeat A2 x 8, B x 2, Pause


C [1,3] [2] [4]
|---------7--------|---------|-------------|
|-2---2---7---8----|---------|-------------|
|-2---2---5---8----|-5-5-3-3-|---------3---|
|-0---0-------6----|-3-3-1-1-|-3h4p3-2-1---|
. . . .

Repeat C x 3, A1, A2 x 5, B x 2


Outro
|-----------------|
|-2---------------|
|-2---------------|
|-0---------------|
.


-----------------------------------------------------------
Lalith Vipulananthan
Singularity Metal Tab

Like us on Facebook.....
-> Loading Time :0.0096 sec