Hey Pretty Girl Tabs & Lyrics by BoDeans

Hey Pretty Girl

guitar tabs lyrics

BoDeans

Album : BlendPlayStop


Band: Bo Deans
Album: Blen
Song: Hey pretty girl
Tab by: Rene from Switzerland
E-Mail: schuster_rene@hotmail.com



E -13/10----------------------------------------------------------------------------------------
B ---------------------6-5------------- 6-6-8-8----------6-5-------------6-6-8-8----------------

G ---------------5-7-5-----7----7-5-7-5------------5-7-5----7----7-5-7-5------------------------
D ----------------------------------------------------------------------------------------------
A ----------------------------------------------------------------------------------------------
E ----------------------------------------------------------------------------------------------


E ----------------------------------------------------------------------------------------------
B ------------6-5--------------------6-5--------------------6-5------------------6-6-8-8--------
G -5-5-7-5--5-----7--7----5-5-7-5--5-----7--7----5-5-7-5--5-----7--7-----5-5-7-5----------------
D ----------------------------------------------------------------------------------------------
A ----------------------------------------------------------------------------------------------
E ----------------------------------------------------------------------------------------------


E ----------------------------------------------------------------------------------------------
B --------------6-5----------------------6-5----------------------6-5------------------6-6-8-8--
G -5-5-7-5--5-5-----7--7----5-5-7-5--5-5-----7--7----5-5-7-5--5-5-----7--7-----5-5-7-5----------
D ----------------------------------------------------------------------------------------------
A ----------------------------------------------------------------------------------------------
E ----------------------------------------------------------------------------------------------


E -------------------8-----------------------12-12-12-12-12-------------------------------------
B -8-8-6/5/6----5--8------8-8-6/5/6----8-8-8----------------------------------------------------
G ------------7---------------------------------------------------------------------------------
D ----------------------------------------------------------------------------------------------
A ----------------------------------------------------------------------------------------------
E ----------------------------------------------------------------------------------------------


E ----------------------------------------------------------------------------------------------
B --------------6-5----------------------6-5----------------------6-5------------------6-6-8-8--
G -5-5-7-5--5-5-----7--7----5-5-7-5--5-5-----7--7----5-5-7-5--5-5-----7--7-----5-5-7-5---------- 2x
D ----------------------------------------------------------------------------------------------
A ----------------------------------------------------------------------------------------------
E ----------------------------------------------------------------------------------------------



E -------------------8-----------------------12-12-12-12-12-------------------------------------
B -8-8-6/5/6----5--8------8-8-6/5/6----8-8-8----------------------------------------------------
G ------------7---------------------------------------------------------------------------------
D ----------------------------------------------------------------------------------------------
A ----------------------------------------------------------------------------------------------
E ----------------------------------------------------------------------------------------------


E ----------------------------------------------------------------------------------------------
B --------------6-5----------------------6-5----------------------6-5------------------6-6-8-8--
G -5-5-7-5--5-5-----7--7----5-5-7-5--5-5-----7--7----5-5-7-5--5-5-----7--7-----5-5-7-5----------
D ----------------------------------------------------------------------------------------------
A ----------------------------------------------------------------------------------------------
E ----------------------------------------------------------------------------------------------


E ----------8v-8v-8v-12-15-17-15-12-12-15-17-15-12----------------------------------------------
B -8v-8v-8v----------------------------------------13-------------------------------------------
G ----------------------------------------------------------------------------------------------
D ----------------------------------------------------------------------------------------------
A ----------------------------------------------------------------------------------------------
E ----------------------------------------------------------------------------------------------


E ----------------------------------------------------------------------------------------------
B --------------6-5----------------------6-5----------------------6-5------------------6-6-8-8--
G -5-5-7-5--5-5-----7--7----5-5-7-5--5-5-----7--7----5-5-7-5--5-5-----7--7-----5-5-7-5---------- 2x
D ----------------------------------------------------------------------------------------------
A ----------------------------------------------------------------------------------------------
E ----------------------------------------------------------------------------------------------


E -8-8-12-15-17-15-12---------------------------------------------------------------------------
B --------------------13------------------------------------------------------------------------
G ----------------------------------------------------------------------------------------------
D ----------------------------------------------------------------------------------------------
A ----------------------------------------------------------------------------------------------
E ----------------------------------------------------------------------------------------------

/ = slide from to v = vibrato


This is my first Tab ever! Any comments and/or corrections are most welcome!
Have fun and keep on rockin'.

RS
9th April 2004

Like us on Facebook.....
-> Loading Time :0.0107 sec