Goin' Against Your Mind Tabs & Lyrics by Built to Spill

Goin' Against Your Mind

guitar tabs lyrics

Built to Spill

Album : Goin' Against Your MindPlayStop


e|---------------------------------------------------------------------------|
B|---------------------------------------------------------------------------|
G|-----------7-7-7-7-7-7-7-7-----------11--11--11--11------------------------|
D|-----------9-9-9-9-9-9-9-9--------------12--12--12--12---------------------|
A|---------------------------------------------------------------------------|
E|---------------------------------------------------------------------------|
(repeat)



e|---------------------------------------------------------------------------|
B|---------------------------------------------------------------------------|
G|----------11~---14s11---9s7-7s9—11~---14s11---14s16—16s14—16~--19s14—------|
D|---------------------------------------------------------------------------|
A|---------------------------------------------------------------------------|
E|---------------------------------------------------------------------------|



e|-------------------------------12s14-14s12---------------------------------|
B|---------------------------------------------------------------------------|
G|-----12p11-7s9---16-19s14-------------------16~--19s14---12-12p11---------|
D|---------------------------------------------------------------------------|
A|---------------------------------------------------------------------------|
E|---------------------------------------------------------------------------|



e|---------------------------------------------------------------------------|
B|---------------------------------------------------------------------------|
G|-----11h12---16~--12p11-12p11—7~---7h9p7----7h9p7h9s11--9---7h9p7----------|
D|-----------------------------------------9------------------------7--------|
A|---------------------------------------------------------------------------|
E|---------------------------------------------------------------------------|



e|---------------------------------------------------------------------------|
B|---------------------------------------------------------------------------|
G|---------------------------------------------------------------------------|
D|------7---7-7--5-5-4—(repeat)----------------------------------------------|
A|---------------------------------------------------------------------------|
E|---------------------------------------------------------------------------|



e|---------------------------------------------------------------------------|
B|---------------------------------------------------------------------------|
G|---------------------------------------------------------------------------|
D|------5-5-5-5-5-5-7-5-3-3-3-3-0-0-3-3--5-5-5-5-5-5-7-5-3-3-3-3-8-8---------|
A|------5-5-5-5-5-5-7-5-3-3-3-3-0-0-3-3--5-5-5-5-5-5-7-5-3-3-3-3-8-8---------|
E|---------------------------------------------------------------------------|



e|---------------------------------------------------------------------------|
B|---------------------------------------------------------------------------|
G|---------------------------------------------------------------------------|
D|------10-10-5-5-5-5-5-5-7-5-3-3-3-3-0-0-3-3-5-5-5-5-8-8-10-10-8~-----------|
A|------10-10-5-5-5-5-5-5-7-5-3-3-3-3-0-0-3-3-5-5-5-5-8-8-10-10-8~-----------|
E|---------------------------------------------------------------------------|


Like us on Facebook.....
-> Loading Time :0.0077 sec