Gilded Lily Tabs & Lyrics by GWAR

Gilded Lily

guitar tabs lyrics

GWAR

Album : America Must Be Destroyed hard rock PlayStop


-------------------------------------------------------------------------------
Gilded Lily - GWAR
-------------------------------------------------------------------------------
Tabbed by: Chris "|SpitFire|" Conner
Email: freqout@freenet.de

Tuning: E-Flat


Intro/Verse


eb-----------------------|-----------------------------|
Bb-----------------------|-----------------------------|
Gb-----------------------|-----------------------------|
Db-----------------------|-----------------------------|
Ab----5h6-5h6-5h6-5h6----|----5h6-5h6--9--8-8-6-6-5-5--|
Eb--5-----------------5--|--3--------------------------|
. . . . . .

Break

eb-----------------------------------------------------|
Bb-----------------------------------------------------|
Gb-----------------------------------------------------|
Db--6--6-6--6-6--6--6-6--6-6--4--4-4--4-4--4-----------|
Ab--4--4-4--4-4--4--4-4--4-4--2--2-2--2-2--2--5--5--5--|
Eb--------------------------------------------3--3--3--|


Bridge

eb-------------------|
Bb-------------------|
Gb-------------------|
Db---8--8--7-7-6-6-4-|
Ab---6--6--5-5-4-4-2-|
Eb-------------------|
. . . .

It varies between these two parts, just listen to the song

eb--------------------------------|--------------------------------|
Bb--------------------------------|--------------------------------|
Gb--------------------------------|--------------------------------|
Db--------------------------------|--------------------------------|
Ab--8--8--5-5-5-5-4-4-4-3-3-3-3-3-|--8--8--9-9-9-9-8-8-8-7-7-7-7-7-|
Eb--6--6--3-3-3-3-2-2-2-1-1-1-1-1-|--6--6--7-7-7-7-6-6-6-5-5-5-5-5-|
. . . . . . . . . . . . . . . . . . . . . . . .

repeat this part 2 times
eb------|--------------------------------------------|------------------------|
Bb------|--------------------------------------------|------------------------|
Gb------|--------------------------------------------|------------------------|
Db--8-8-|-9------7----------9-9------7----------9-9--|------11~---7~----------|
Ab--6-6-|-7---5--5----5--7--7-7---5--5----5--7--7-7--|--5~---9~---5~--5--5-5--|
Eb------|-----3-------3--5--------3-------3--5-------|--3~------------3--3-3--|


Ending [The Verse Variation]

eb-------------------------------------------------|
Bb-------------------------------------------------|
Gb-------------------------------------------------|
Db----5h6-5h6-5h6-5h6-6-----5h6-5h6-5h6-5h6-6------|
Ab--6-------------------6-5-------------------5-6--|
Eb-------------------------------------------------|

eb----------------------------------------------------------------|
Bb----------------------------------------------------------------|
Gb----------------------------------------------------------------|
Db----5h6-5h6---5h6-5h6---5h6---5h6---5h6---5h6--8-7-8-7-8-7-8-7--|
Ab--6---------5---------6-----5-----6-----5------6-5-6-5-6-5-6-5--|
Eb----------------------------------------------------------------|

eb-----------------------------------|
Bb-----------------------------------|
Gb-----------------------------------|
Db---------------------------------8-|
Ab--9--7-5---------7--5-3----------6-|
Eb---------7--5-3----------5--3-2----|


| / slide up
| \ slide down
| h hammer-on
| p pull-off
| ~ let ring
| + harmonic
| x Mute note
===============================================================================

Like us on Facebook.....
-> Loading Time :0.0083 sec