Fuck the World Tabs & Lyrics by Insane Clown Posse

Fuck the World

guitar tabs lyrics

Insane Clown Posse

Album : The Amazing Jeckel Brothers juggalo PlayStop


-------------------------------------------------------------------------------
Fuck The World - Insane Clown Posse [ICP]
-------------------------------------------------------------------------------
Tabbed by: brandon1315
Email:brschunk_15@hotmail.com

Tuning: Standard
Tones: Set how you think it fits best.

This is supposed to be on a keyboard but i arranged it for guitar. I didn't it anywhere

else on the web, so i decided it would be fun to figure out.

Q H Q H Q Q Q H Q H Q
e|---------------------||:-------------------------:||
B|-----12------15--12--||:----------------15--12---:||
G|-13------13----------||:13--12--13--12-----------:||
D|---------------------||:-------------------------:||
A|---------------------||:-------------------------:||
E|---------------------||:-------------------------:||Repeats through whole song

Took about, 2 minutes to figure it out. Pretty easy.
Here's a second one, because I am not quite sure which one it is. Use the one you want
[personally i think the 2nd one sounds closest, but im not 100% sure.]

Q H Q H Q Q Q H Q H Q
e|---------------------||:-------------------------:||
B|-----16------19--16--||:----------------19--16---:||
G|-17------17----------||:17--16--17--16-----------:||
D|---------------------||:-------------------------:||
A|---------------------||:-------------------------:||
E|---------------------||:-------------------------:||Repeats through whole song


| E eighth note
| Q quarter note
| H half note
| W whole note
| / slide up
| \ slide down
| h hammer-on
| p pull-off
| ~ vibrato
| + harmonic
| x Mute note
===============================================================================

Like us on Facebook.....
-> Loading Time :0.0110 sec