Fuck Police Brutality Tabs & Lyrics by Anti-Flag

Fuck Police Brutality

guitar tabs lyrics

Anti-Flag

Album : Die for the Government punk PlayStop


Anti-Flag - Fuck Police Brutality
Tabbed By: Josh Menchaca


INTRO

--------------------------------------------------------------
--------------------------------------------------------------
--------------------------------------------------------------
8--8--6--4--6---Pick Slide--8--8--6--4--6---------------------

6--6--4--2--4---------------6--6--4--2--4---------------------
--------------------------------------------------------------
VERSE
--------------------------------------------------------------
--------------------------------------------------------------
---P.M.---P.M.----P.M.---P.M.-----P.M.---------X2-------------
8-------8-------6-------4-------6-------8---------------------
6-6-6-6-6-6-6-6-4-4-4-4-2-2-2-2-4-4-4-4-6---------------------
--------------------------------------------------------------
CHORUS

--------------------------------------------------------------
--------------------------------------------------------------
-----------------------------------X2-------------------------
8888-11111111-13131313-1515151515151515151515151515-----------
6666-9 9 9 9 -11111111-1313131313131313131313131313-----------
--------------------------------------------------------------
VERSE AGAIN
CHORUS AGAIN

This IS the Part When Andy Flag Is Saying
"But The Cops....

--------------------------------------------------------------
--------------------------------------------------------------
--------------------------------------------------------------
8-11-6-4----------After A While THrown in A Couple of Palm Mutes
6-9 -4-2-------------------------------------------------------
--------------------------------------------------------------

CHORUS AGAIN

I learned this by ear and i personnaly think it's very accurate
and C.M. and J.M.are the best skateboarders in seguin Texas

Like us on Facebook.....
-> Loading Time :0.0226 sec