From the Other Side Tabs & Lyrics by King Diamond

From the Other Side

guitar tabs lyrics

King Diamond

Album : The Spider’s LullabyePlayStop


King Diamond: From The Other Side

transcribed by: Russ Elton : [email protected]

FIND EVERY MERCYFUL FATE/KING DIAMOND SONG AND
THE MOST UPDATED VERSION OF THIS SONG AT:

The Tab Crypt
http://republika.pl/tlange/

Date last modified: 12-07-01

PLEASE DO NOT COPY THIS TAB TO ANOTHER SITE
WITHOUT AUTHORS' PERMISSION. THANK YOU.

Tuning: Standard

Riff 1
Guitar 1
e|--------------------------------------------|
B|--------------------------------------------|
G|--------------------------------------------|
A|------------------------------------9--9-11-|
D|------------------------------------7--7--9-|
E|-7/9-999999-12p9-999999-7/9-999999----------|
****** ****** ******
e|--------------------------------------------|
B|--------------------------------------------|
G|--------------------------------------------|
A|--------------------------------------------|
D|------------------------------------7--7--9-|
E|-7/9-999999-12p9-999999-7/9-999999--5--5--7-|
****** ****** ******
Guitar 2
e|--------------------------------------------|
B|--------------------------------------------|
G|--------------------------------------------|
D|--------------------------------------------|
A|-7/9-999999-12p9-999999-7/9-999999-11-11-12-|
E|--------------------------------------------|
****** ****** ******
e|--------------------------------------------|
B|--------------------------------------------|
G|--------------------------------------------|
D|--------------------------------------------|
A|-7/9-999999-12p9-999999-7/9-999999--7--7--6-|
E|--------------------------------------------|
****** ****** ******

Riff 2
Guitar 1
e|--------------------------------------------|
B|--------------------------------------------|
G|--------------------------------------------|
A|------------------------------------9--9-11-|
D|------------------------------------7--7--9-|
E|-7/9-999999-12p9-999999-7/9-999999----------|
****** ****** ******
e|-----------------------------------------|
B|-----------------------------------------|
G|-----------------------------------------|
A|-----------------------------------------|
D|------------------------------------7--9-|
E|-7/9-999999-12p9-999999-7/9-999999--5--7-|
****** ****** ******

Guitar 2
e|--------------------------------------------|
B|--------------------------------------------|
G|--------------------------------------------|
D|-4/6-666666--9p6-666666-4/6-666666----------|
A|------------------------------------7--7--9-|
E|--------------------------------------------|
****** ****** ******
e|------------------------------------------|
B|------------------------------------------|
G|------------------------------------------|
D|-4/6-666666--9p6-666666-4/6-666666--------|
A|------------------------------------7--6\-|
E|------------------------------------------|
****** ****** ******


Riff 3
e|-----------------------|
B|-----------------------|
G|-----------------------|
D|------------------4--6-|
A|------------------2--4-|
E|-2h4-44444444...-------|
********
"I don't know......."
e|-----------------------|
B|-----------------------|
G|-----------------------|
D|------------------4--4-|
A|------------------2--1-|
E|-2h4-44444444...-------|
********
"All I know ......"


Riff 4
e|--------------------------------|
B|--------------------------------|
G|--------------------------------|
D|-6----4------------------2----4-|
A|-4----2------------------0----2-|
E|-----------44444444-...---------|
********
"From the other side....."


Play Riff 2
Play Riff 3 "Someone down there...."
Play Riff 4 "From the other side..."


Riff 5
e|----------------------------|
B|----------------------------|
G|----------------------------|
D|--6-6-4-6-----2-----9-8-6-4-|
A|--4-4-2-4--6--0-----7-6-4-2-|
E|-----------4----------------|

e|----------------------------|
B|----------------------------|
G|----------------------------|
D|--6-6-4-6-----2----2--4-4-4-|
A|--4-4-2-4--6--0----0--2-2-2-|
E|-----------4----------------|
"I see the......"
e|-----------------------------|
B|-----------------------------|
G|-----------------------------|
D|--9-9-7-9----------12-11-9-7-|
A|--7-7-5-7--9-10----10--9-7-5-|
E|-----------7--8--------------|
"...strangest faces..."
e|-------------------------------|
B|-------------------------------|
G|-------------------------------|
D|--9-9-7-9----------------------|
A|--7-7-5-7--9-10---10--12-12-12-|
E|-----------7--8----8--10-10-10-|
"...never seen before..."

Riff 5a
e|----------------------------|
B|----------------------------|
G|----------------------------|
D|--6-6-4-6-----2-----9-8-6-4-|
A|--4-4-2-4--6--0-----7-6-4-2-|
E|-----------4----------------|

e|----------------------------|
B|----------------------------|
G|----------------------------|
D|--6-6-4-6--4--2----2--4-4-4-|
A|--4-4-2-4--2--0----0--2-2-2-|
E|----------------------------|
"They see through..."
e|-----------------------------|
B|-----------------------------|
G|-----------------------------|
D|--9-9-7-9----------12-11-9-7-|
A|--7-7-5-7--9-10----10--9-7-5-|
E|-----------7--8--------------|
"...empty spaces...."
e|-------------------------------|
B|-------------------------------|
G|-------------------------------|
D|--9-9-7-9----------------------|
A|--7-7-5-7--9-10---10--12-12-12-|
E|-----------7--8----8--10-10-10-|
"...not exist no more..."

Riff 6
Guitar 1
e|---------------------|
B|---------------------|
G|---------------------|
D|---------------------|
A|-4-4---------------4-|
E|-2-2--22--222--222-2-|
** *** ***
"I swear by the ....."
Guitar 2
e|---------------------|
B|---------------------|
G|---------------------|
D|---------------------|
A|-4-4---------------4-|
E|-2-2--222222222222-2-|
************


Riff 1a
Guitar 1 x2
e|--------------------------------------------|
B|--------------------------------------------|
G|--------------------------------------------|
A|--------------------------------------------|
D|------------------------------------7--7--9-|
E|-7/9-999999-12p9-999999-7/9-999999--5--5--7-|
****** ****** ******

Guitar 2
e|--------------------------------------------|
B|--------------------------------------------|
G|--------------------------------------------|
D|-4/6-666666--9p6-666666-4/6-666666----------|
A|------------------------------------7--7--9-|
E|--------------------------------------------|
****** ****** ******
e|--------------------------------------------|
B|--------------------------------------------|
G|--------------------------------------------|
D|-4/6-666666--9p6-666666-4/6-666666----------|
A|------------------------------------7--7--6-|
E|--------------------------------------------|
****** ****** ******


Play Riff 3 "There's a demon..."
Play Riff 4 "From the other side..."
Play Riff 5 "I guess I wasn't...."
Play Riff 6 "Demon demon..."
Play Riff 1a
Play Riff 3 Solo Rhythm
Play Riff 4 "From the other side..."
Play Riff 6 "Wake up!"

notation:
^ = bend [ ^ = half, ^^ = whole, etc. ]
^r = bend and release
x = mute with fret-hand
* = mute with palm-hand
X\\ = pick slide
h = hammer-on
p = pull-off
~ = vibrato
t = tap-on
/ = slide up
\ = slide down
h. = harmonics
ah = artificial harmonic
(9) = ghost note
tm = trem picking
tr = trill

Like us on Facebook.....
-> Loading Time :0.0204 sec