Frail Tabs & Lyrics by Godflesh

Frail

guitar tabs lyrics

Godflesh

Album : Songs of Love and Hate industrial metal PlayStop


Frail
Godflesh
Lead/Justin Broadrick
Drop C Tuning (CGCFAD)


W (feed back) H. Q H H
D||-------------------|----------------------|--------------------|
A||-------------------|----------------------|--------------------|
F||-------------------|----------------------|--------------------|

C||-------------------|----------------------|--------------------|
G||-------------------|----------------------|--0-----------------|
C||-------------------|---------------12S----|--0--------0--------|


Q Q E E Q Q Q Q Q E Q E E E Q
-------------------------|----------------------|--------------------------|
-------------------------|----------------------|--------------------------|
-------------------------|----------------------|--------------------------|
-------------------------|----------------------|--------------------------|
------------0h--2p--0----|-------0----3---------|-----3----3--3h--5p--3----|
--L----0-----------------|--3--------------5----|--L-----------------------|


H H Q Q E E Q Q Q Q Q
--------------------|-------------------------|----------------------|
--------------------|-------------------------|----------------------|
--------------------|-------------------------|----------------------|
--------------------|-------------------------|----------------------|
--0-----------------|------------0h--2p--0----|-------0----3---------|
--0--------0--------|--L----0-----------------|--3--------------5----|


PH
E Q E E E Q H H Q Q E E Q
---------------------------|--------------------|-------------------------|
---------------------------|--------------------|-------------------------|
---------------------------|--------------------|-------------------------|
--------------------3----|--------------------|-------------------------|
-----3----3--3h--5---------|--0-----------------|------------0h--2p--0----|
--L------------------------|--0--------0--------|--L----0-----------------|


Q Q Q Q E Q E E E Q H H
----------------------|--------------------------|--------------------|
----------------------|--------------------------|--------------------|
----------------------|--------------------------|--------------------|
----------------------|--------------------------|--------------------|
-------0----3---------|-----3----3--3h--5p--3----|--0-----------------|
--3--------------5----|--L-----------------------|--0--------0--------|


Q Q E E Q Q Q Q Q E Q E E E Q
-------------------------|----------------------|--------------------------|
-------------------------|----------------------|--------------------------|
-------------------------|----------------------|--------------------------|
-------------------------|----------------------|--------------------------|
------------0h--2p--0----|-------0----3---------|-----3----3--3h--5p--3----|
--L----0-----------------|--3--------------5----|--L-----------------------|


H H Q Q E E Q Q Q Q Q
--------------------|-------------------------|----------------------|
--------------------|-------------------------|----------------------|
--------------------|-------------------------|----------------------|
--------------------|-------------------------|----------------------|
--0-----------------|------------0h--2p--0----|-------0----3---------|
--0--------0--------|--L----0-----------------|--3--------------5----|


E Q E E E Q H H Q Q E E Q
-------------------------|--------------------|-------------------------|
-------------------------|--------------------|-------------------------|
-------------------------|--------------------|-------------------------|
--------------------3----|--------------------|-------------------------|
-----3----3--3h--5-------|--0-----------------|------------0h--2p--0----|
--L----------------------|--0--------0--------|--L----0-----------------|


Q Q Q Q E Q E E E Q Q Q Q Q
----------------------|-------------------------|----------------------|
----------------------|-------------------------|----------------------|
----------------------|-------------------------|----------------------|
----------------------|--------------------3----|----------------------|
-------0----3---------|-----3----3--3h--5-------|-------2----3---------|
--3--------------5----|--L----------------------|--5--------------3----|


Q Q E Q. Q Q Q Q Q Q E Q.
----------------------|----------------------|----------------------|
----------------------|----------------------|----------------------|
----------------------|----------------------|----------------------|
----------------------|----------------------|----------------------|
-------2----3--2------|-------2----3---------|-------2----3--2------|
--L-------------------|--5--------------2----|--L-------------------|


Q Q Q Q Q Q E Q. Q Q Q Q
----------------------|----------------------|----------------------|
----------------------|----------------------|----------------------|
----------------------|----------------------|----------------------|
----------------------|----------------------|----------------------|
-------2----3---------|-------2----3--2------|-------2----3---------|
--5--------------3----|--L-------------------|--5--------------2----|


Q Q E Q. H H Q Q E E Q
----------------------|--------------------|-------------------------|
----------------------|--------------------|-------------------------|
----------------------|--------------------|-------------------------|
----------------------|--------------------|-------------------------|
-------2----3--2------|--0-----------------|------------0h--2p--0----|
--L-------------------|--0--------0--------|--L----0-----------------|


Q Q Q Q E Q E E E Q H H
----------------------|--------------------------|--------------------|
----------------------|--------------------------|--------------------|
----------------------|--------------------------|--------------------|
----------------------|--------------------------|--------------------|
-------0----3---------|-----3----3--3h--5p--3----|--0-----------------|
--3--------------5----|--L-----------------------|--0--------0--------|


Q Q E E Q Q Q Q Q E Q E E E Q
-------------------------|----------------------|-------------------------|
-------------------------|----------------------|-------------------------|
-------------------------|----------------------|-------------------------|
-------------------------|----------------------|--------------------3----|
------------0h--2p--0----|-------0----3---------|-----3----3--3h--5-------|
--L----0-----------------|--3--------------5----|--L----------------------|


H H Q Q E E Q Q Q Q Q
--------------------|-------------------------|----------------------|
--------------------|-------------------------|----------------------|
--------------------|-------------------------|----------------------|
--------------------|-------------------------|----------------------|
--0-----------------|------------0h--2p--0----|-------0----3---------|
--0--------0--------|--L----0-----------------|--3--------------5----|


E Q E E E Q H H Q Q E E Q
-------------------------|--------------------|-------------------------|
-------------------------|--------------------|-------------------------|
-------------------------|--------------------|-------------------------|
--------------------3----|--------------------|-------------------------|
-----3----3--3h--5-------|--0-----------------|------------0h--2p--0----|
--L----------------------|--0--------0--------|--L----0-----------------|


PH
Q Q Q Q E Q E E E Q Q Q Q Q
----------------------|---------------------------|----------------------|
----------------------|---------------------------|----------------------|
----------------------|---------------------------|----------------------|
----------------------|--------------------3----|----------------------|
-------0----3---------|-----3----3--3h--5---------|-------2----3---------|
--3--------------5----|--L------------------------|--5--------------3----|


Q Q E Q. Q Q Q Q Q Q E Q.
----------------------|----------------------|----------------------|
----------------------|----------------------|----------------------|
----------------------|----------------------|----------------------|
----------------------|----------------------|----------------------|
-------2----3--2------|-------2----3---------|-------2----3--2------|
--L-------------------|--5--------------2----|--L-------------------|


Q Q Q Q Q Q E Q. Q Q Q Q
----------------------|----------------------|----------------------|
----------------------|----------------------|----------------------|
----------------------|----------------------|----------------------|
----------------------|----------------------|----------------------|
-------2----3---------|-------2----3--2------|-------2----3---------|
--5--------------3----|--L-------------------|--5--------------2----|


Q Q H Q Q Q Q Q Q Q Q
---------------------|----------------------|----------------------|
---------------------|----------------------|----------------------|
---------------------|----------------------|----------------------|
---------------------|----------------------|----------------------|
-------2----3--------|-------0----4---------|-------0----4---------|
--L------------------|--4--------------2----|--L--------------0----|


Q Q Q Q Q E E Q Q Q Q H
----------------------|-------------------------|---------------------|
----------------------|-------------------------|---------------------|
----------------------|-------------------------|---------------------|
----------------------|-------------------------|---------------------|
--0----4----0----4----|--0----4h--5p--4---------|--0----4-------------|
----------------------|--------------------4----|------------2--------|


Q Q Q Q Q Q Q Q E E Q Q Q
----------------------|----------------------|-------------------------|
----------------------|----------------------|-------------------------|
----------------------|----------------------|-------------------------|
----------------------|----------------------|-------------------------|
--0----4---------0----|--4----0----4----0----|--4h--5p--4---------0----|
------------0---------|----------------------|---------------4---------|


Q H Q Q Q Q Q Q Q Q E E
---------------------|----------------------|-------------------------|
---------------------|----------------------|-------------------------|
---------------------|----------------------|-------------------------|
---------------------|----------------------|-------------------------|
--4-------------0----|--4---------0----4----|--0----4----0----4h--5h--|
-------2-------------|-------0--------------|-------------------------|


Q Q Q Q H Q Q Q Q Q Q
----------------------|---------------------|----------------------|
----------------------|---------------------|----------------------|
----------------------|---------------------|----------------------|
----------------------|---------------------|----------------------|
--4---------0----4----|-----------0----4----|-------0----4----0----|
-------4--------------|--2------------------|--0-------------------|


Q Q E E Q H H Q Q E E Q
-------------------------|--------------------|-------------------------|
-------------------------|--------------------|-------------------------|
-------------------------|--------------------|-------------------------|
-------------------------|--------------------|-------------------------|
--4----0----4h--5p--4----|--0-----------------|------------0h--2p--0----|
-------------------------|--0--------0--------|--L----0-----------------|


Q Q Q Q E Q E E E Q H H
----------------------|--------------------------|--------------------|
----------------------|--------------------------|--------------------|
----------------------|--------------------------|--------------------|
----------------------|--------------------------|--------------------|
-------0----3---------|-----3----3--3h--5p--3----|--0-----------------|
--3--------------5----|--L-----------------------|--0--------0--------|


PH
Q Q E E Q Q Q Q Q E Q E E E Q
-------------------------|----------------------|---------------------------|
-------------------------|----------------------|---------------------------|
-------------------------|----------------------|---------------------------|
-------------------------|----------------------|--------------------3----|
------------0h--2p--0----|-------0----3---------|-----3----3--3h--5---------|
--L----0-----------------|--3--------------5----|--L------------------------|


H H Q Q E E Q Q Q Q Q
--------------------|-------------------------|----------------------|
--------------------|-------------------------|----------------------|
--------------------|-------------------------|----------------------|
--------------------|-------------------------|----------------------|
--0-----------------|------------0h--2p--0----|-------0----3---------|
--0--------0--------|--L----0-----------------|--3--------------5----|


E Q E E E Q H H Q Q E E Q
-------------------------|--------------------|-------------------------|
-------------------------|--------------------|-------------------------|
-------------------------|--------------------|-------------------------|
--------------------3----|--------------------|-------------------------|
-----3----3--3h--5-------|--0-----------------|------------0h--2p--0----|
--L----------------------|--0--------0--------|--L----0-----------------|


PH
Q Q Q Q E Q E E E Q Q Q Q Q
----------------------|---------------------------|----------------------|
----------------------|---------------------------|----------------------|
----------------------|---------------------------|----------------------|
----------------------|--------------------3----|----------------------|
-------0----3---------|-----3----3--3h--5---------|-------2----3---------|
--3--------------5----|--L------------------------|--5--------------3----|


Q Q E Q. Q Q Q Q Q Q E Q.
----------------------|----------------------|----------------------|
----------------------|----------------------|----------------------|
----------------------|----------------------|----------------------|
----------------------|----------------------|----------------------|
-------2----3--2------|-------2----3---------|-------2----3--2------|
--L-------------------|--5--------------2----|--L-------------------|


Q Q Q Q Q Q E Q. Q Q Q Q
----------------------|----------------------|----------------------|
----------------------|----------------------|----------------------|
----------------------|----------------------|----------------------|
----------------------|----------------------|----------------------|
-------2----3---------|-------2----3--2------|-------2----3---------|
--5--------------3----|--L-------------------|--5--------------2----|


Q Q H Q Q Q Q Q Q Q Q
---------------------|----------------------|----------------------|
---------------------|----------------------|----------------------|
---------------------|----------------------|----------------------|
---------------------|----------------------|----------------------|
-------2----3--------|-------0----4---------|-------0----4---------|
--L------------------|--4--------------2----|--L--------------0----|


Q Q Q Q Q E E Q Q Q Q H
----------------------|-------------------------|---------------------|
----------------------|-------------------------|---------------------|
----------------------|-------------------------|---------------------|
----------------------|-------------------------|---------------------|
--0----4----0----4----|--0----4h--5p--4---------|--0----4-------------|
----------------------|--------------------4----|------------2--------|


Q Q Q Q Q Q Q Q E E Q Q Q
----------------------|----------------------|-------------------------|
----------------------|----------------------|-------------------------|
----------------------|----------------------|-------------------------|
----------------------|----------------------|-------------------------|
--0----4---------0----|--4----0----4----0----|--4h--5p--4---------0----|
------------0---------|----------------------|---------------4---------|


Q H Q Q Q Q Q Q Q Q E E
---------------------|----------------------|-------------------------|
---------------------|----------------------|-------------------------|
---------------------|----------------------|-------------------------|
---------------------|----------------------|-------------------------|
--4-------------0----|--4---------0----4----|--0----4----0----4h--5h--|
-------2-------------|-------0--------------|-------------------------|


Q Q Q Q H Q Q Q Q Q Q
----------------------|---------------------|----------------------|
----------------------|---------------------|----------------------|
----------------------|---------------------|----------------------|
----------------------|---------------------|----------------------|
--4---------0----4----|-----------0----4----|-------0----4----0----|
-------4--------------|--2------------------|--0-------------------|


Q Q E E Q Q Q Q Q Q Q Q Q
-------------------------|----------------------|----------------------|
-------------------------|----------------------|----------------------|
-------------------------|----------------------|----------------------|
-------------------------|----------------------|----------------------|
--4----0----4h--5p--4----|-------0----4---------|-------0----4---------|
-------------------------|--4--------------2----|--L--------------0----|


Q Q Q Q Q E E Q Q Q Q H
----------------------|-------------------------|---------------------|
----------------------|-------------------------|---------------------|
----------------------|-------------------------|---------------------|
----------------------|-------------------------|---------------------|
--0----4----0----4----|--0----4h--5p--4---------|--0----4-------------|
----------------------|--------------------4----|------------2--------|


Q Q Q Q Q Q Q Q E E Q Q Q
----------------------|----------------------|-------------------------|
----------------------|----------------------|-------------------------|
----------------------|----------------------|-------------------------|
----------------------|----------------------|-------------------------|
--0----4---------0----|--4----0----4----0----|--4h--5p--4---------0----|
------------0---------|----------------------|---------------4---------|


Q H Q Q Q Q Q Q Q Q E E
---------------------|----------------------|-------------------------|
---------------------|----------------------|-------------------------|
---------------------|----------------------|-------------------------|
---------------------|----------------------|-------------------------|
--4-------------0----|--4---------0----4----|--0----4----0----4h--5h--|
-------2-------------|-------0--------------|-------------------------|


Q Q Q Q H Q Q Q Q Q Q
----------------------|---------------------|----------------------|
----------------------|---------------------|----------------------|
----------------------|---------------------|----------------------|
----------------------|---------------------|----------------------|
--4---------0----4----|-----------0----4----|-------0----4----0----|
-------4--------------|--2------------------|--0-------------------|


^
Q Q E E Q W W
-------------------------|-------------------|-------------------|
-------------------------|-------------------|-------------------|
-------------------------|-------------------|-------------------|
-------------------------|-------------------|-------------------|
--4----0----4h--5p--4----|--L----------------|--L----------------|
-------------------------|-------------------|-------------------|


W W W
-------------------|-------------------|-------------------|
-------------------|-------------------|-------------------|
-------------------|-------------------|-------------------|
-------------------|-------------------|-------------------|
--L----------------|--L----------------|--L----------------|
-------------------|-------------------|-------------------|


-------------------||
-------------------||
-------------------||
-------------------||
-------------------||
-------------------||




Duration Legend
---------------
W - whole
H - half
Q - quarter
E - 8th
S - 16th
T - 32nd
X - 64th
. - note dotted
|-n-| - n-tuplets


Tablature Legend
----------------
L - tied note
x - dead note
g - grace note
(n) - ghost note
> - accentuded note
NH - natural harmonic
AH - artificial harmonic
TH - tapped harmonic
SH - semi harmonic
PH - pitch harmonic
h - hammer on
p - pull off
b - bend
br - bendRelease
pb - preBend
pbr - preBendRelease
brb - bendReleaseBend
\n/ - tremolo bar dip
\n - tremolo bar dive
-/n - tremolo bar Release up
/n\ - tremolo bar inverted dip
/n - tremolo bar return
-\n - tremolo bar Release down
S - shift slide
s - legato slide
/ - slide into from below or out of upwards
\ - slide into from above or out of downwards
~ - vibrato
W - wide vibrato
tr - trill
TP - tremolo picking
T - tapping
S - slap
P - pop
< - fade in
^ - brush up
v - brush down


Like us on Facebook.....
-> Loading Time :0.0177 sec