Fly Again Tabs & Lyrics by Dream Child

Fly Again

guitar tabs lyrics

Dream Child

Album : Reaching the Golden GatesPlayStop


****************************************************************************
* DREAM CHILD - Fly Again (guitar solo) *
****************************************************************************
Album : REACHING THE GOLDEN GATES
Transcribed by Dominique LEURQUIN


Tablature explanation

p : pulling-off

h : hammer-on
~ : vibrato
/ : slide up
\ : slide down
b() : bend until the note in brackets
()rb : release bend, from the note in brackets
T : tapping
x5 : repeat 5 times the part in [ ]
a.h. : artificial harmonic
H : natural harmonic



E)--------------------------------------------------------------------
B)--------------------------------------------------------------------
G)-------13-b(14)rb-13------------------------------------------------
D)----11---------------9~----7p6---------------------11-14-11~--12p11-
A)-9~----------------------------7/-9\-7~--9/-11/-12------------------
E)--------------------------------------------------------------------


E)-------------------------------------------------------------
B)--------------------------------7/9--10/12--10\9--10--10p9\7-
G)----------------------9-b(11)~-------------------------------
D)-11\9--9\7--7h9-9p7------------------------------------------
A)-------------------------------------------------------------
E)-------------------------------------------------------------


E)------------------12-b(14)~-(14)~rb-12-10\9-----------
B)-7\5~--9h10p9/10----------------------------10/12\9~--
G)------------------------------------------------------
D)------------------------------------------------------
A)------------------------------------------------------
E)------------------------------------------------------


E)-----------------------------------------------------------
B)-14p12-12\10--10\9--9\7--7\5\3\2------15p14--14\12--12\10--
G)---------------------------------4-2-----------------------
D)-----------------------------------------------------------
A)-----------------------------------------------------------
E)-----------------------------------------------------------


E)-----------------------------------------------------------
B)-10\9/10--12-12/14-12~---17p15--15\14--14\12--12\10--10\9--
G)-----------------------------------------------------------
D)-----------------------------------------------------------
A)-----------------------------------------------------------
E)-----------------------------------------------------------


E)----------------------------------14h16-------------14/16/17-
B)-11--9\7\6---19p17--17\15--15\14---------17-b(19)~-----------
G)-------------------------------------------------------------
D)-------------------------------------------------------------
A)-------------------------------------------------------------
E)-------------------------------------------------------------


E)-19-b(21)~--(21)~rb-19~--17p16--19-b(21)~--19-b(22)--19-19~--
B)-------------------------------------------------------------
G)-------------------------------------------------------------
D)-------------------------------------------------------------
A)-------------------------------------------------------------
E)-------------------------------------------------------------


E)-------22-b(24)rb-22--21-22----------------------------------
B)-17/19----------------------19-19~--19-21-22-21~--19\17\16~--
G)-------------------------------------------------------------
D)-------------------------------------------------------------
A)-------------------------------------------------------------
E)-------------------------------------------------------------

Like us on Facebook.....
-> Loading Time :0.0054 sec