Fascist Pig Tabs & Lyrics by Suicidal Tendencies

Fascist Pig

guitar tabs lyrics

Suicidal Tendencies

Album : Suicidal Tendencies hardcore punk PlayStop


Band: Suicidal Tendencies
Album: Suicidal Tendencies
Song: Fascist Pig

Copyright (c) (Virgin) (1983)
Version 1.0 - (20/06/05)

Transcribed By: Steve
Email: stephen.elvidge1@ntlworld.com



. - palm mute / - slide up to
\ - slide down to ~ - vibrato
h - hammer on b - Bend
p - pull off Suffixes for bend
t - tap f - full bend h - half bend
ph - pinched harmonic q - quarter bend t - tap bend
* - see comment ^ - Hold bend r release bend
x - Stuccatto ~ - vibrato bend
, - slight palm mute () - ghost note, sustained note
" - tremolo note - Trill

Tunning E A D G B E


Intro

Fade in with feedback.

E--------------------|
B--------------------|
G-9-9/111112-12\1111-|
D-9-9/111112-12\1111-|
A-7-7/9-9/10-10\9-9--|
E--------------------| Rpt 3 X

E--------------------|
B--------------------|
G-9-9/111112-12------|
D-9-9/111112-12------|
A-7-7/9-9/10-10------|
E--------------------|

Verse

E------------------|
B------------------|
G-9-9-----7-7------|
D-9-9-9-9-7-7-7-7--|
A-7-7-9-9-5-5-7-7--|
E-----7-7-----5-5--| Rpt 4 X

Chorus

E----------------------|
B----------------------|
G-2--2--2-2--4--4--4-4-|
D-2--2--2-2--4--4--4-4-|
A-0--0--0-0--2--2--2-2-|
E----------------------| Rpt

E-------------------------|
B-------------------------|
G-2--2--2-2--4--4--4-4-4--|
D-2--2--2-2--4--4--4-4-4--|
A-0--0--0-0--2--2--2-2-2--|
E-------------------------|

Rpt Chorus
Rpt Verse and Chorus 3 X




END

Like us on Facebook.....
-> Loading Time :0.0093 sec