Every Breath You Take Tabs & Lyrics by Millencolin

Every Breath You Take

guitar tabs lyrics

Millencolin

Album : The Melancholy Collection punk rock PlayStop


----------------------------------------------------------------------------
Every Breath You Take - Millencoin
----------------------------------------------------------------------------
originaly Tabbed by:Superbum
and edited by: aaron marquet

i saw this tab and it sound a tad wrong so i edited it a bit

peace

Tuning:regular

Verse 1
e|-------------------------------------------------------------------------|
B|-------------------------------------------------------------------------|
G|---7-7-7-7-7-7-7-7---------------------------------------4-4-4-4-4-4-4-4-|
D|---7-7-7-7-7-7-7-7---9-9-9-9-9-9-9-9---5-5-5-5--7-7-7-7--4-4-4-4-4-4-4-4-|
A|--5-5-5-5-5-5-5-5----9-9-9-9-9-9-9-9---5-5-5-5--7-7-7-7--2-2-2-2-2-2-2-2|
E|---------------------7-7-7-7-7-7-7-7---3-3-3-3--5-5-5-5----------------|

Chorus
e|-------------------------------------------------------------------------|
B|-------------------------------------------------------------------------|
G|------------------------7-7-7-7-7-7-7-7--4-4-4-4-4-4-4-4--9-9-9-9-9------|
D|----5-5-5-5--2-2-2-2----7-7-7-7-7-7-7-7--4-4-4-4-4-4-4-4--9-9-9-9-9------|
A|----5-5-5-5--2-2-2-2----5-5-5-5-5-5-5-5--2-2-2-2-2-2-2-2--7-7-7-7-7-----7|
E|----3-3-3-3--0-0-0-0-----------------------------------------------------|

Bridge-I'm not sure about this but its close enough
e|--------------------------------------|----------------------------------|
B|--------------------------------------|----------------------------------|
G|--3-3-3-3-3-3-3-3---5-5-5-5-5-5-5-5---|------5---------------------------|
D|--3-3-3-3-3-3-3-3---5-5-5-5-5-5-5-5---|-x3---5-strum-till-solo-----------|
A|--1-1-1-1-1-1-1-1---3-3-3-3-3-3-3-3---|------3---------------------------|
E|--------------------------------------|----------------------------------|

solo
e|-------------------------------------------------------------------------|
B|------------------------------------5-7-5---575--------------------------|
G|----------------------------------2-------2------------------------------|
D|----0-5-7-5-0-575-----2-4-2---242---------------0-5-7-5-0-575-----x2-----|
A|--------------------2-------2--------------------------------------------|
E|-------------------------------------------------------------------------|

Verse 2
e|-------------------------------------------------------------------------|
B|-------------------------------------------------------------------------|
G|-------------------------------------------------------------------------|
D|--7-7-7-7-7-7-7------------------------------------7-7-7-7-7-7-7---------|
A|--5-5-5-5-5-5-5-9-9-9-9-9-9-9-5-5-5-5-7-7-7-7------5-5-5-5-5-5-5---------|
E|----------------7-7-7-7-7-7-7-3-3-3-3-5-5-5-5----------------------------|
. . . . . . . . . . . . . . . .

Order:
Verse x2
Chorus
Verse
Bridge
Solo
Chorus
Verse2 x2
Verse1 x3

Like us on Facebook.....
-> Loading Time :0.0106 sec