Ever Increasing Circles Tabs & Lyrics by Carcass

Ever Increasing Circles

guitar tabs lyrics

Carcass

Album : Wake Up and Smell the… CarcassPlayStop


Band: Carcass
Song: Ever Increasing Circles


. - palm mute / - slide up to
\ - slide down to ~ - vibrato
h - hammer on b - bend
p - pull off Suffixes for bend
ph - pinch harmonic f - full bend h - half bend
* - see comment r - release t - tap bend

X - percussion mute ~ - vibrato bend
@ - slight palm mute () - ghost note, sustained note
" - tremolo pick until next note

Tune Down 2.5 steps to B

Intro
|---------------|
|---------------|GTRS
|---------------|1&2
|--9----7----4--|
|--7----5----2--|
|---------------|

Riff 1
|---------------------------------------------------------------|
|---------------------------------------------------------------|GTRS
|---------------------------------------------------------------|1&2
|-------2p1---1--2p1-----1--------------------------------------|
|-----------3---------3~~---3-2-------3p2---2---2p1-----1-------|
|-00-0--------------------------00--0-----3---------3~~---3-2---|
.. .. .

|---------------------------------------------------------------|
|---------------------------------------------------------------|GTRS
|---------------------------------------------------------------|1&2
|-------2p1---1---2p1-----1-------------------------------------|
|-----------3---------3~~---3-2-------3p2---2---2p1---5555-4444-|
|-00-0--------------------------00--0-----3-----------3333-2222-|
.. .. . .... ....

RIFF 2 PLAY 3 TIMES
|-----------------------------------------------------------------|
|-----------------------------------------------------------------|GTRS
|-----------------------------------------------------------------|1&2
|------------6\5-----4/5---------------------6/8-----6\5----------|
|----5/6-----4\3-----2/3-----8\7-----5/5-----4/6-----4\3-----8\7--|
|-0--3/4--0-------0-------0--6\5--0--3/4--0-------0-------0--6\5--|
. . . . . . . .

|-----------------------------------------------------------------|
|-----------------------------------------------------------------|GTRS
|-----------------------------------------------------------------|1&2
|------------6\5-----4/5---------------------6\5-----4--5--3--2---|
|----5/6-----4\3-----2/3-----8\7-----5/6-----4\3-----2--3--1--0---|
|-0--3/4--0-------0-------0--6\5--0--3/4--0-------0---------------|
. . . . . . .

RIFF 3
|------------------------------------------------------------------------|
|------------------------------------------------------------------------|GTRS
|------------------------------------------------------------------------|1&2
|---------4-----------------------------------------------------4--------|
|-5\2---2-2------------5\4-----------3~---2-3-2---------5\2---2-2--------|
|-3\0-0-0-------19\----3\2-0-3-2-0-2------------3-2-0---3\0-0-0-----19\--|
. . . . . . . . . . . . .

|------------------------|
|------------------------|GTRS
|------------------------|1&2
|---------------5--------|
|-5\4-----------3--3-2-0-|
|-3\2-0-3-2-0-2----------|
. . . . .

PLAY RIFF 2 3 TIMES
PLAY RIFF 3 1 TIME

RIFF 1a
|------------------------------------------------------------|
|------------------------------------------------------------|GTRS
|------------------------------------------------------------|1&2
|----2p1---1---2p1-----1-------------------------------------|
|--------3---------3~~---3-2-------3p2---2---2p1-----1-------|
|-0--------------------------00--0-----3---------3-----3-2---|
.. .

|---------------------------------------------------------------|
|---------------------------------------------------------------|GTRS
|----------------------------------------------------------a.h.-|1&2
|-------2p1---1---2p1-----1--------------------------------2~~--|
|-----------3---------3~~---3-2-------3p2---2---2p1-----1-------|
|-00-0--------------------------00--0-----3---------3-----3-----|
.. .. .

RIFF 4 PLAY 6 TIMES
|-----------------------------------------|
|-----------------------------------------|GTRS
|-----------------------------------------|1&2
|------7----2h3p2p0------------6h7p6p0----|
|-2----5-------------2----6---------------|
|-0-00---00----------0-00-4-00------------|
.. .. .. ..

RIFF 5 PLAY 4 TIMES
|-----------------------------------------------------|
|-----------------------------------------------------|GTRS
|-------0------------0-------------0---------0--------|1&2
|----4-----4------4-------------4-----4------------4--|
|-7------------5--------2--(2)------------3-----5-----|
|-----------------------------------------------------|

PLAY RIFF 4 4 TIMES
PLAY RIFF 5 3 TIMES

|--------------------------------------------|
|--------------------------------------------|GTRS
|--------------------------------------------|1&2
|--9----7----4----444444444444---------------|
|--7----5----2----222222222222---------------|
|------------------------------0--/14\-------|
............ .

PLAY RIFF 2 3 TIMES
PLAY RIFF 3 2 TIMES
PLAY RIFF 1a 1 TIME

|------------------------------------------------------------|
|------------------------------------------------------------|GTR
|------------------------------------------------------------| 1
|----2p1---1---2p1-----1-------------------------------------|
|--------3---------3~~---3-2-------3p2---2---2p1-----1-------|
|-0--------------------------00--0-----3---------3-----3-2---|
| .. |
| |
|------------------------------------------------------------|
|------------------------------------------------------------|GTR
|----4P3---3--4P3------3P0-----------------------------------| 2
|--------5--------5~~------4-------5P4---4---4P3-----3-------|
|--------------------------------------5---------5-----5-4---|
|-0---------------------------00-0---------------------------|
..

|------------------------------------------------------------|
|------------------------------------------------------------|GTR
|------------------------------------------------------------| 1
|----2p1---1---2p1-----1----------------------------7-7-7-9--|
|--------3---------3~~---3-2-------3p2---2---2p1-5--5-5-5-7--|
|-0--------------------------00--0-----3---------3-----------|
| .. . . . |
| |
|------------------------------------------------------------|
|------------------------------------------------------------|GTR
|----4P3---3--4P3------3P0-----------------------------------| 2
|--------5--------5~~------4-------5P4---4---4P3----7-7-7-9--|
|--------------------------------------5---------5--5-5-5-7--|
|-0---------------------------00-0---------------3-----------|
..


Like us on Facebook.....
-> Loading Time :0.0307 sec