Easy Money Tabs & Lyrics by Foghat

Easy Money

guitar tabs lyrics

Foghat

Album : The Definitive Rock CollectionPlayStop

EASY MONEY
As recorded by Foghat
(From the 1978 Album STONE BLUE)

Words and Music by Lonesome Dave Peverett
Transcribed by Tone Jone's

Gtr I (E A D G B E) - 'Gtr.1 Distortion'
Gtr II (E A D G B E) - 'Gtr.2 Distortion'
Gtr III (E A D G B E) - 'Gtr.3 Distortion'
Gtr IV (E A D G B E) - 'Gtr.4 Pick Scrape'


Intro
Fast Rock Q=204
A D5
4/4 2/4
Gtr I
E E E E E E E E E E E E E E E E E E E E E E E E E E Q
|-----------------|-----------------|-----------------|---------|
|---2-------------|-----------------|-----------------|-----3---|
|---2---2-------2-|---2---2-------2-|---2-----------2-|---2-2---|
|---2---2-------2-|---2---2-------2-|---2---2-------2-|---2-0---|
|-0-------3p0-----|---------3p0-----|---------3p0-----|---------|
|-------------3---|-------------3---|-------------3---|---------|


$
A5 D5
4/4 2/4
Gtr I
E E E E E E E E E E E E E E E E E E E E E E E E E E Q
|-----------------|-----------------|-----------------|---------||
|-----------------|-----------------|-----------------|-----3---||
|---2---2-------2-|---2---2-------2-|---2---2-------2-|---2-2---||
|---2---2-------2-|---2---2-------2-|---2---2-------2-|---2-0---||
|-0-------3p0-----|---------3p0-----|---------3p0-----|---------||
|-------------3---|-------------3---|-------------3---|---------||
|
| Gtr II
| E E Q H E E Q H E E E E E E E E E E Q
|-----------------|-----------------|-----------------|---------||
|-----------------|-----------------|-----------------|-----3---||
|---2-------------|---2-------------|---2---2-------2-|---2-2---||
|---2-------------|---2-------------|---2---2-------2-|---2-0---||
|-----------------|-----------------|---------3p0-----|---------||
|-----------------|-----------------|-------------3---|---------||


A5 D5
4/4 2/4
Gtrs I, II
E E E E E E E E E E E E E E E E E E E E E E E E E E Q
||------------------|-----------------|-----------------|---------||
||o-----------------|-----------------|-----------------|-----3--o||
||----2---2-------2-|---2---2-------2-|---2---2-------2-|---2-2---||
||----2---2-------2-|---2---2-------2-|---2---2-------2-|---2-0---||
||o-0-------3p0-----|---------3p0-----|---------3p0-----|--------o||
||--------------3---|-------------3---|-------------3---|---------||


Verse
A5
4/4
E E E E E E E E E E E E E E E E E E E E E E E E
||------------------|-----------------|-----------------|
||o-----------------|-----------------|-----------------|
||----2---2-------2-|---2---2-------2-|---2---2-------2-|
||----2---2-------2-|---2---2-------2-|---2---2-------2-|
||o-0-------3p0-----|---------3p0-----|---------3p0-----|
||--------------3---|-------------3---|-------------3---|


E E E E E E E E E E E E E E E E E E E E E E E E
|-----------------|-----------------|-----------------|
|-----------------|-----------------|-----------------|
|---2---2-------2-|---2---2-------2-|---2---2-------2-|
|---2---2-------2-|---2---2-------2-|---2---2-------2-|
|---------3p0-----|---------3p0-----|---------3p0-----|
|-------------3---|-------------3---|-------------3---|


G D A5
Q. E +Q Q E E E E E E E E E E E E E E E E
|------2-(2)-----|-----------------|-----------------|
|-3----3-(3)-----|-----------------|-----------------|
|-0----2-(2)--2--|---2---2-------2-|---2---2-------2-|
|-0----0-(0)--2--|---2---2-------2-|---2---2-------2-|
|-2-----------0--|---------3p0-----|---------3p0-----|
|-3--------------|-------------3---|-------------3---|


A5
E E E E E E E E E E E E E E E E E E E E E E E E
|-----------------|-----------------|-----------------|
|-----------------|-----------------|-----------------|
|---2---2-------2-|---2---2-------2-|---2---2-------2-|
|---2---2-------2-|---2---2-------2-|---2---2-------2-|
|-0-------3p0-----|---------3p0-----|---------3p0-----|
|-------------3---|-------------3---|-------------3---|


E E E E E E E E E E E E E E E E E E E E E E E E
|-----------------|-----------------|-----------------|
|-----------------|-----------------|-----------------|
|---2---2-------2-|---2---2-------2-|---2---2-------2-|
|---2---2-------2-|---2---2-------2-|---2---2-------2-|
|---------3p0-----|---------3p0-----|---------3p0-----|
|-------------3---|-------------3---|-------------3---|


G D A5
Q. E +Q Q E E E E E E E E E E E E E E E E
|------2-(2)-----|-----------------|-----------------||
|-3----3-(3)-----|-----------------|-----------------||
|-0----2-(2)--2--|---2---2-------2-|---2---2-------2-||
|-0----0-(0)--2--|---2---2-------2-|---2---2-------2-||
|-2-----------0--|---------3p0-----|---------3p0-----||
|-3--------------|-------------3---|-------------3---||


Chorus
Dsus2 Cadd9 A5
Q. E +Q Q Q. E +Q Q E E E E E E E E E E E E E E E E
|------0-(0)-----|------0-(0)-----|-----------------|------------------|
|-3-----------3--|-------------3--|-----------------|------------------|
|-2--------------|-0--------------|---2---2-------2-|---2---2-------0--|
|-0--------------|-2--------------|---2---2-------2-|---2---2-------0--|
|----------------|-3--------------|---------3p0-----|---------3p0------|
|----------------|----------------|-------------3---|-------------3----|


Dsus2 Cadd9 A5
Q. E +Q Q Q. E +Q Q E E E E E E E E E E E E E E Q
|------0-(0)-----|------0-(0)-----|-----------------|-----------------|
|-3-----------3--|-------------3--|-----------------|-----------------|
|-2--------------|-0--------------|---2---2-------2-|---2---2---------|
|-0--------------|-2--------------|---2---2-------2-|---2---2---------|
|----------------|-3--------------|---------3p0-----|---------3p0-----|
|----------------|----------------|-------------3---|-------------3---|


Dsus2 Cadd9 A5
Q. E +Q Q Q. E +Q Q E E E E E E E E E E E E E E E E
|------0-(0)-----|------0-(0)-----|-----------------|------------------|
|-3-----------3--|-------------3--|-----------------|------------------|
|-2--------------|-0--------------|---2---2-------2-|---2---2-------2--|
|-0--------------|-2--------------|---2---2-------2-|---2---2-------2--|
|----------------|-3--------------|---------3p0-----|---------3p0------|
|----------------|----------------|-------------3---|-------------3----|


G D5 A5
W W E E E E E E E E
|----------|----------|-----------------|
|-0--------|-3--------|-----------------|
|-0--------|-2--------|---2---2-------2-|
|-0--------|-0--------|---2---2-------2-|
|-x--------|----------|-0-------3p0-----|
|-3--------|----------|-------------3---|


D5
2/4
E E E E E E E E E E E E E E E E E E Q
|-----------------|-----------------|----------|
|-----------------|-----------------|-----3----|
|---2---2-------2-|---2---2-------2-|---2-2----|
|---2---2-------2-|---2---2-------2-|---2-0----|
|---------3p0-----|---------3p0-----|----------|
|-------------3---|-------------3---|----------|


1.
To Coda
A5 D5
4/4 2/4
E E E E E E E E E E E E E E E E E E E E E E E E E E Q
|-----------------|-----------------|-----------------|----------||
|-----------------|-----------------|-----------------|-----3---o||
|---2---2-------2-|---2---2-------2-|---2---2-------2-|---2-2----||
|---2---2-------2-|---2---2-------2-|---2---2-------2-|---2-0----||
|-0-------3p0-----|---------3p0-----|---------3p0-----|---------o||
|-------------3---|-------------3---|-------------3---|----------||


Guitar Solo
2.
N.C. D
4/4
Gtr I
T
W S S S S E E E E E E
|--------------------||-------------------5---|
|--------------------||-----------------5---8p|
|-5tr7---------------||-5-9p7p5-7p5-7b9-------|
|--------------------||-----------------------|
|--------------------||-----------------------|
|--------------------||-----------------------|
|
| Gtr II
| E E E E E E E E Q Q E E Q
|--------------------||-----------------------|
|--------------------||---------7-------7-----|
|--------------------||---------7-------7-----|
|------------------0-||---------7-------7-----|
|-0----0-2-2-3-3-4---||-----------------------|
|--------------------||-----------------------|


A D
~
E E E E E +S S E E Q a Q Q Q
|-5---------------------|---------------------|
|-5---------------------|---------------------|
|---7-7-7-7b8r(7)p5-7p5-|-7b9r=7s9b12---------|
|-----------------------|--------------7---7--|
|-----------------------|---------------------|
|-----------------------|---------------------|
|
| Q Q E E Q Q Q E E Q
|-----------------------|---------------------|
|-----5--------5--------|--------7-------7----|
|-----6--------6--------|--------7-------7----|
|-----7--------7--------|--------7-------7----|
|-----------------------|---------------------|
|-----------------------|---------------------|


A D
E E E E Q E S S E E E E E E E E
|--------------------|-----------------------------------------|
|--------------------|-------8----------10-------13----13------|
|---------5b7--0-4p0-|-10b12---10-12b14----12b14-15b16-15pb17==|
|-5-7-7-5------------|-----------------------------------------|
|--------------------|-----------------------------------------|
|--------------------|-----------------------------------------|
|
| Q Q H Q Q E E Q
|--------------------|-----------------------------------------|
|-----5--------------|----------7-----------7------------------|
|-----6--------------|----------7-----------7------------------|
|-----7--------------|----------7-----------7------------------|
|--------------------|-----------------------------------------|
|--------------------|-----------------------------------------|


A C D A
~~~~~
E E E E E E E E Q. E +Q Q
|----------------------17-17-|-------------------------|
|-13----------------17-------|-20b22---20-(20)--20b22--|
|-15r---19-19-19b21----------|-------------------------|
|-----0----------------------|-------------------------|
|----------------------------|-------------------------|
|----------------------------|-------------------------|
|
| Q Q E E Q Q. E +Q Q
|----------------------------|-------------------------|
|--------5-----------5-------|--5-------7--(7)---5-----|
|--------6-----------6-------|--5-------7--(7)---6-----|
|--------7-----------7-------|--5-------7--(7)---7-----|
|----------------------------|-------------------------|
|----------------------------|-------------------------|


D
Gtr IGtr I
~~~~ TP
+H +E Q E E E E E E E E E
|---------------------|-----------------|
|-(20)----(20)--------|-x-x-7-x-x-7-x-7-|
|---------------------|-x-x-7-x-x-7-x-7-|
|--------------x\---0-|-x-x-7-x-x-7-x-7-|
|--------------x\-----|-----------------|
|---------------------|-----------------|
|
| ~
| +H. Q W
|---------------------|-8---------------|
|--(5)----------------|-7---------------|
|--(6)----------------|-----------------|
|--(7)----------------|-----------------|
|---------------------|-----------------|
|---------------------|-----------------|


A5 D
E E E E E E E E E E E E E E E E
|------------------------------|--------------------------|
|------------------------------|-x---x-7---x-x---7-x---x--|
|-x--------x---2-x-x-2----x--x-|-x---x-7---x-x---7-x---x--|
|-x--------x---2-x-x-2----x--x-|-x---x-7---x-x---7-x---x--|
|-x--------x---0-x-x-0----x--x-|--------------------------|
|------------------------------|--------------------------|
|
| S +E S E E E E +E E E E E E E E E E
|-8----------------------------|--------------------------|
|-7pb8r(7)p==5---------------5-|-----5-----5-----5-----5--|
|--------------7---5-7b9-(7)---|-7b9---7b9---7b9---7b9----|
|----------------7-------------|--------------------------|
|------------------------------|--------------------------|
|------------------------------|--------------------------|


A5 A6 A5
Gtr II
S +S S S E E +E E E E
|-------------------------------|
|-----------------------5-----5-|
|-7b8r(7)p5---5-7b9-(7)---7b9---|
|-----------5-------------------|
|-------------------------------|
|-------------------------------|
|
| Gtr I
| E E Q E E E E
|-------------------------------|
|-------------------------------|
|-x-------x---2------2--2-x---x-|
|-x-------x---2------4--2-x---x-|
|-x-------x---0------0--0-x---x-|
|-------------------------------|


D A
E E E E E E E E E E E E S S E Q
|-------------------------|-----------------------|
|-----5-----5-----5-----5-|-----5-----5-----------|
|-7b9---7b9---7b9---7b9---|-7b9---7b9---7p5---5---|
|-------------------------|-----------------7-----|
|-------------------------|-----------------------|
|-------------------------|-----------------------|
|
| E E E E E E E E E E E E E E E E
|-------------------------|-----------------------|
|-x---x-7---x-x---7-x---x-|-x---x-2---x-x---2-x-x-|
|-x---x-7---x-x---7-x---x-|-x---x-2---x-x---2-x-x-|
|-x---x-7---x-x---7-x---x-|-x---x-2---x-x---2-x-x-|
|-------------------------|-x---x-0---x-x---0-x-x-|
|-------------------------|-----------------------|


C D A
G
~~~~~~~~~~~
E +E +E E +E E Q +H. Q
|----------------------------|-------------|
|---------------8-(8)--------|-------------|
|-7b8-(7)b9-(7)---------7b9--|-(7)---------|
|----------------------------|-------------|
|----------------------------|-------------|
|----------------------------|-------------|
|
| E +E E E Q Q +W
|----------------------------|-------------|
|-5-------------7-------2----|-(2)---------|
|-5-------------7-------2----|-(2)---------|
|-5-------------7-------2----|-(2)---------|
|-3---(3)s===5--5-------0----|-(0)---------|
|----------------------------|-------------|


D Cadd9
tr I
|-3--| |---3----|
Q E S S Q Q Q Q Q Q E E E E
|----------5-------|-----------------------|
|------------8-[5]-|-----------------------|
|--------6---------|-b9--5---7-5-7---|
|------------------|-----------------------|
|------7-----------|-----------------------|
|------------------|-----------------------|
|
| Gtrs II, III
| W W
|-2----------------|-----------------------|
|-3----------------|--3--------------------|
|-2----------------|--0--------------------|
|-0----------------|--2--------------------|
|------------------|--3--------------------|
|------------------|-----------------------|


A5
~~~~~
+E Q +E +Q. E
|-------------------------------------|
|-------------------------------------|
|-(7)-b9r==()b9==()-----r-|
|-------------------------------------|
|-------------------------------------|
|-------------------------------------|
|
| E E E E E E E E
|-------------------------------------|
|-------------------------------------|
|------2--------2-----------------2---|
|------2--------2-----------------2---|
|------------------------3p==0--------|
|------------------------------3------|


D5 Cadd9
Gtr II
~~~~~~~ ~~~~~~~~~~~ ~~
+H H H +E E E E a H Q +Q
|--------------------|--------------5---|---------8b9--(8)--|
|--------------------|------------5---5-|-8s10--------------|
|-()--------------|-7b9----(7)-------|-------------------|
|--------------------|------------------|-------------------|
|--------------------|------------------|-------------------|
|--------------------|------------------|-------------------|
|
| E E E E E E Q W H Q Q
|--------------------|------------------|---------0---------|
|--------------------|-3----------------|----3----------3---|
|---x---2---2--------|-2----------------|----0--------------|
|---x---2---2--------|-0----------------|----2--------------|
|-------------3p0----|------------------|----3--------------|
|-----------------3--|------------------|-------------------|


A5
~~~~~~~~~~~~
E Q. +H W
|---------------------|---------------------|
|---10------(10)------|-10b13---------------|
|-0-------------------|---------------------|
|---------------------|---------------------|
|---------------------|---------------------|
|---------------------|---------------------|
|
| G
| E E E E E E E E E E E E E E E E
|---------------------|---------------------|
|---------------------|---------------------|
|----2----2---------2-|-------2---2-------x-|
|----2----2---------2-|-------2---2---------|
|-------------3p0-----|-------------3p0-----|
|-----------------3---|-----------------3---|
|
| Gtrs II, III
| W W
|---------------------|---------------------|
|---------------------|---------------------|
|---------------------|---------------------|
|---------------------|---------------------|
|---------------------|---------------------|
|---------------------|---------------------|


D5 Cadd9
+Q Q H W
|-----------------------|-----------------------|
|----(10)---------------|-----------------------|
|-----------------------|-----------------------|
|-----------------------|-----------------------|
|-----------------------|-----------------------|
|-----------------------|-----------------------|
|
|tr I
| a H Q E E a H Q a E E
|-----------------------|-----------------------|
|-13p=10------10-----10-|-13p10----10--------13-|
|-----------------12----|--------------12s14----|
|-----------------------|-----------------------|
|-----------------------|-----------------------|
|-----------------------|-----------------------|
|
| W W
|-----------------------|-----------------------|
|------3----------------|-----3-----------------|
|------2----------------|-----0-----------------|
|------0----------------|-----2-----------------|
|-----------------------|-----3-----------------|
|-----------------------|-----------------------|


A5
Gtr I
E +Q. +Q. +S S
|----------------------------------|
|-15b17==(15)-----(15)r====(15)p13-|
|----------------------------------|
|----------------------------------|
|----------------------------------|
|----------------------------------|
|
| E E E E E E E E
|----------------------------------|
|----------------------------------|
|----------2----2------------2-----|
|----------2----2------------2-----|
|-------------------3p=0-----------|
|------------------------3---------|


G D
Gtr II
~~ ~~~ ~~~~~
H +Q Q H. Q H. Q
|---------------------|-------------|---------------||
|---------------------|-5-----------|--8------------||
|-14-------(14)\------|-7b9---------|-10b12---------||
|---------------------|-------------|---------------||
|---------------------|-------------|---------------||
|---------------------|-------------|---------------||
|
| E E E E E E Q W W
|---------------------|-3-----------|--2------------||
|---------------------|-0-----------|--3------------||
|--x-2---2------------|-0-----------|--2------------||
|--x-2---2------------|-0-----------|--0------------||
|------------3p==0----|-2-----------|---------------||
|------------------3--|-3-----------|---------------||


Interlude
D.S. al Coda
A5
2/4
Gtr III
~~~~~~~~~~~~~~~~~~~~~~~~~~~~~~~~~~~~~~~~~~~~~~~
W +W +H. Q W
|---------------------|--------------------|--------------------|--------||
|-10------------------|-(10)---------------|-(10)---------------|--------||
|-12b14---------------|-(12)---------------|-(12)---------------|--------||
|---------------------|--------------------|--------------------|--------||
|---------------------|--------------------|--------------------|--------||
|---------------------|--------------------|--------------------|--------||
|
| Gtr II
| E E Q H W W W
|---------------------|--------------------|--------------------|--------||
|---------------------|--------------------|--------------------|--------||
|--2------------------|--------------------|--------------------|--------||
|--2------------------|--------------------|--------------------|--------||
|--0------------------|--------------------|--------------------|--------||
|---------------------|--------------------|--------------------|--------||
|
| Gtr I
| E E E E E E E E E E E E E E E E E E E E E E E E E E Q
|---------------------|--------------------|--------------------|--------||
|---------------------|--------------------|--------------------|-----3--||
|-------2---2-------2-|------2---2-------2-|------2---2-------2-|---2-2--||
|-------2---2-------2-|------2---2-------2-|------2---2-------2-|---2-0--||
|--0----------3p0-----|------------3p0-----|------------3p0-----|--------||
|-----------------3---|----------------3---|----------------3---|--------||


Guitar Solo
&
D5 A5
2/4 4/4
Gtr I
~~~~~~~~~~~ ~~~~~~~~~~~~~~ ~~
E E Q E Q. +Q E E E Q. +Q Q E Q. E E E E
|--------||-------------------|-------------------|-------------------|
|-----3--||-------------------|-------------------|-------------------|
|---2-2--||-5-----------------|-5-----------------|-5-----------------|
|---2-0--||---7------(7)--5-7-|---7------(7)--7---|---7----------5----|
|--------||-------------------|-------------------|----------5h7---7--|
|--------||-------------------|-------------------|-------------------|
|
| Gtr II
| E E Q E E E E E E E E E E E E E E E E E E E E E E E E
|--------||-------------------|-------------------|-------------------|
|-----3--||-------------------|-------------------|-------------------|
|---2-2--||---2----2--------2-|---2----2--------2-|---2----2-------2--|
|---2-0--||---2----2--------2-|---2----2--------2-|---2----2-------2--|
|--------||-0---------3p0-----|-----------3p0-----|----------3p0------|
|--------||---------------3---|---------------3---|--------------3----|


~~~~~~~~~~~
E Q. +Q E E E E E E E E E E
|-------------------|-----------------|
|-------------------|-----------------|
|-5-----------------|-------------4s9-|
|---7------(7)------|-5---------------|
|---------------5h7-|---7s5-3-5p3-----|
|-------------------|-----------------|
|
| E E E E E E E E E E E E E E E E
|-------------------|-----------------|
|-------------------|-----------------|
|---2----2--------2-|---2---2-------2-|
|---2----2--------2-|---2---2-------2-|
|-----------3p0-----|---------3p0-----|
|---------------3---|-------------3---|


D5
2/4
E E E E E E E E E E a Q Q E. S Q Q
|-----------------|---8-------------------8-|----------|
|-8---------------|-8---8s10---10---10------|-10---10--|
|---9s6-5-7p5-6s9-|-------------------------|----------|
|-----------------|-------------------------|----------|
|-----------------|-------------------------|----------|
|-----------------|-------------------------|----------|
|
| E E E E E E E E E E E E E E E E E E Q
|-----------------|-------------------------|----------|
|-----------------|-------------------------|-------3--|
|---2---2-------2-|---2------2----------2---|----2--2--|
|---2---2-------2-|---2------2----------2---|----2--0--|
|---------3p0-----|-------------3p0---------|----------|
|-------------3---|------------------3------|----------|


A5
4/4
|--3---| |--3---| |--3---|
a Q E. S E E E S S E E E E E E E E E E E
|--------8----10p8----8-8h10p|=8--0-8-10p==8-10p8------8-10p==8-|
|-7s10-------------10--------|---10-----------------10----------|
|----------------------------|----------------------------------|
|----------------------------|----------------------------------|
|----------------------------|----------------------------------|
|----------------------------|----------------------------------|
|
| E E E E E E E E E E E E E E E E
|----------------------------|----------------------------------|
|----------------------------|----------------------------------|
|------2----2-----------2----|----2------2------------------2---|
|------2----2-----------2----|----2------2------------------2---|
|----0-----------3p=0--------|----------------3p==0-------------|
|---------------------3------|-------------------------3--------|


|--3---| |--3---| |--3---| |--3---| |--3---| |--3---| |--3---| |3-|
E E E E E E E E E E E E E E E E E E E E E E Q
|-10p8------8-10p==8-10p8------8-10p==8-|-10p8------8-10p==8-10p8------8-10b14-----|
|--------10-----------------10----------|--------10-----------------10-------------|
|---------------------------------------|------------------------------------------|
|---------------------------------------|------------------------------------------|
|---------------------------------------|------------------------------------------|
|---------------------------------------|------------------------------------------|
|
| E E E E E E E E E E E E E E E E
|---------------------------------------|------------------------------------------|
|---------------------------------------|------------------------------------------|
|------2---------2------------------2---|------2---------2---------------------2---|
|------2---------2------------------2---|------2---------2---------------------2---|
|---------------------3p==0-------------|---------------------3p==0----------------|
|------------------------------3--------|------------------------------3-----------|


|---3---| |---3---| |---3---| |---3---|
+H E E E E E E E E E E E E E E E E
|-(10)--------------12-|-15p12------12-15p==12-15p12------12-15p==12-|
|----------------10----|---------15--------------------15------------|
|--------------0-------|---------------------------------------------|
|----------------------|---------------------------------------------|
|----------------------|---------------------------------------------|
|----------------------|---------------------------------------------|
|
| E E E E E E E E E E E E E E E E
|----------------------|---------------------------------------------|
|----------------------|---------------------------------------------|
|------2---2---------2-|-------2----------2---------------------2----|
|------2---2---------2-|-------2----------2---------------------2----|
|------------3p0-------|------------------------3p===0---------------|
|-----------------3----|-----------------------------------3---------|


D5
2/4
|---3---| |---3---| |---3---| |---3---| |---3---| |--3--|
E E E E E E E E E E E E E E E E E E
|-15p12------12-15p==12-15p12------12-15p==12-|-15p12------12-15p12--|
|---------15--------------------15------------|---------15-----------|
|---------------------------------------------|----------------------|
|---------------------------------------------|----------------------|
|---------------------------------------------|----------------------|
|---------------------------------------------|----------------------|
|
| E E E E E E E E E E Q
|---------------------------------------------|----------------------|
|---------------------------------------------|-------------3--------|
|-------2----------2---------------------2----|-------2-----2--------|
|-------2----------2---------------------2----|-------2-----0--------|
|------------------------3p===0---------------|----------------------|
|-----------------------------------3---------|----------------------|


A5
4/4
|---3---| |---3---| |---3---| |---3---| |---3---| |---3---| |---3---| |---3---|
E E E E E E E E E E E E E E E E E E E E E E E E
|-15p12------12-15p==12-15p12------12-15p==12-|-15p12------12-15p==12-15p12------12-15p==12-|
|---------15--------------------15------------|---------15--------------------15------------|
|---------------------------------------------|---------------------------------------------|
|---------------------------------------------|---------------------------------------------|
|---------------------------------------------|---------------------------------------------|
|---------------------------------------------|---------------------------------------------|
|
| E E E E E E E E E E E E E E E E
|---------------------------------------------|---------------------------------------------|
|---------------------------------------------|---------------------------------------------|
|-------2----------2---------------------2----|-------2----------2---------------------2----|
|-------2----------2---------------------2----|-------2----------2---------------------2----|
|------------------------3p===0---------------|------------------------3p===0---------------|
|-----------------------------------3---------|-----------------------------------3---------|


D5
2/4
|---3---| |---3---| |---3---| |---3---| |---3---| |--3--|
E E E E E E E E E E E E E E E E E E
|-15p12------12-15p==12-15p12------12-15p==12-|-15p12------12-15p12--|
|---------15--------------------15------------|---------15-----------|
|---------------------------------------------|----------------------|
|---------------------------------------------|----------------------|
|---------------------------------------------|----------------------|
|---------------------------------------------|----------------------|
|
| E E E E E E E E E E Q
|---------------------------------------------|----------------------|
|---------------------------------------------|-------------3--------|
|-------2----------2---------------------2----|-------2-----2--------|
|-------2----------2---------------------2----|-------2-----0--------|
|------------------------3p===0---------------|----------------------|
|-----------------------------------3---------|----------------------|


A5
4/4
|---3---| |---3---| |---3---| |---3---| |---3---| |---3---| |---3---| |---3---|
E E E E E E E E E E E E E E E E E E E E E E E E
|-15p12------12-15p==12-15p12------12-15p==12-|-15p12------12-15p==12-15p12------12-15p==12-|
|---------15--------------------15------------|---------15--------------------15------------|
|---------------------------------------------|---------------------------------------------|
|---------------------------------------------|---------------------------------------------|
|---------------------------------------------|---------------------------------------------|
|---------------------------------------------|---------------------------------------------|
|
| E E E E E E E E E E E E E E E E
|---------------------------------------------|---------------------------------------------|
|---------------------------------------------|---------------------------------------------|
|-------2----------2---------------------2----|-------2----------2---------------------2----|
|-------2----------2---------------------2----|-------2----------2---------------------2----|
|------------------------3p===0---------------|------------------------3p===0---------------|
|-----------------------------------3---------|-----------------------------------3---------|


|---3---| |---3---| |---3---|
E E E E E E E E E E E +Q Q H
|-15p12------12-15p==12-15p12------12-15b17-|-(15)----------*|
|---------15--------------------15-----x----|---------------*|
|--------------------------------------0----|---------------*|
|-------------------------------------------|---------------*|
|-------------------------------------------|---------------*|
|-------------------------------------------|---------------*|
|
| E E E E E E E E W
|-------------------------------------------|---------------*|
|-------------------------------------------|---------------*|
|-------2----------2-------------------2----|---------------*|
|-------2----------2-------------------2----|---------------*|
|------------------------3p===0--------0----|---------------*|
|-----------------------------------3-------|---------------*|


Duration Legend
---------------
W - whole; H - half; Q - quarter; E - 8th; S - 16th; T - 32nd; X - 64th; a - acciaccatura
+ - note tied to previous; . - note dotted; .. - note double dotted
Uncapitalized letters represent notes that are staccato (1/2 duration)
Irregular groupings are notated above the duration line
Duration letters will always appear directly above the note/fret number it represents the
duration for. Duration letters with no fret number below them represent rests. Multi-
bar rests are notated in the form Wxn, where n is the number of bars to rest for. Low
melody durations appear below the staff

Tablature Legend
----------------
h - hammer-on
p - pull-off
b - bend
pb - pre-bend
r - bend release (if no number after the r, then release immediately)
/\ - slide into or out of (from/to "nowhere")
s - legato slide
S - shift slide
- natural harmonic
[n] - artificial harmonic
n(n) - tapped harmonic
~ - vibrato
tr - trill
T - tap
TP - trem. picking
PM - palm muting
\n/ - tremolo bar dip; n = amount to dip
\n - tremolo bar down
n/ - tremolo bar up
/n\ - tremolo bar inverted dip
= - hold bend; also acts as connecting device for hammers/pulls
- volume swell (louder/softer)
x - on rhythm slash represents muted slash
o - on rhythm slash represents single note slash

Misc Legend
-----------
| - bar
|| - double bar
||o - repeat start
o|| - repeat end
*| - double bar (ending)
: - bar (freetime)
$ - Segno
& - Coda
Tempo markers - = BPM(8/16=s8/s16), where s8 = swing 8ths, s16 = swing 16ths


***************************************************************************************
* Generated using Power Tab Editor by Brad Larsen - http://powertab.guitarnetwork.org *
***************************************************************************************

Like us on Facebook.....
-> Loading Time :0.0173 sec