Dragonaut Tabs & Lyrics by Sleep

Dragonaut

guitar tabs lyrics

Sleep

Album : Sleep's Holy Mountain doom metal PlayStop


Sleep is a stoner metal group (reminiscent of Black Sabbath)from the 1990's.
This particular number is the lead track on their second full-length "Sleep's
Holy Mountain", released in 1993 on Earache Records. The guitarist (Matt Pike)
went on to form High on Fire.

-------------------------------------------------------------------------------
Dragonaut - Sleep
-------------------------------------------------------------------------------
Tabbed by: The Iron Fist
Email:jdblizzardhc@hotmail.com


Tuning: Drop-D down one whole step

I have been unable to find Sleep tabs anywhere, so I decided to take care of the problem
myself. I've left out all the palm muting and the solo.
Enjoy!

Riff A
D|---------------------------------------------------------------------------|
A|---------------------------------------------------------------------------|
F|----------3---------------------------------------------3------------------|
C|----3h5-----5-3---3-5------3h5-------3---3-5------3h5-----5-3---3-5--------|
G|----------------5----------------3-5---5-----/8-5-------------5------------|
C|8-5-----5-------------/8-5-----5-------------/8-5-----5--------------------|

Main Riff (Riff B)
D|-------------------------II------------------------------------------------|
A|-------------------------II------------------------------------------------|
F|-------------------------II------------------------------------------------|
C|------3h5--------3---3-5-II------------------------------------------------|
G|/8-5---------3-5---5-----II-2-2-2-2-2--2-0-2-3-2-0-2-2-2-2-2--/8-7-5-------|
C|/8-5------5--------------II-2-2-2-2-2--2-0-2-3-2-0-2-2-2-2-2--/8-7-5-------|

Main Riff (Variation)
D|---------------------------------------------------------------------------|
A|---------------------------------------------------------------------------|
F|---------------------------------------------------------------------------|
C|---------------------------------------------------------------------------|
G|-5p0-2-2-2-0-2-2-0-2-3-2-0-5p0-2-2-5p0-2-/8-7-5----------------------------|
C|-5p0-2-2-2-0-2-2-0-2-3-2-0-5p0-2-2-5p0-2-/8-7-5----------------------------|

Riff C
D|---------------------------------------------------------------------------|
A|---------------------------------------------------------------------------|
F|---------------------------------------------------------------------------|
C|-5/7-7-7~----5/7-7-7~----5/7-7-7~------------------------------------------|
G|-3/5-5-5~----3/5-5-5~----3/5-5-5~----/7-6~-6-5~----------------------------|
C|-----0-0--00-----0-0--00-----0-0--00-/7-6~-6-5~----------------------------|

Riff D
D|---------------------------------------------------------------------------|
A|---------------------------------------------------------------------------|
F|---------------------------------------------------------------------------|
C|-------------------------------3--------------------------------3----------|
G|----5---3---5---3---5-----------5-3-----5---3---5---------5-3-----5-3---3-5|
C|0-0---0---0---0---0---0-5-6-7-------0-0---0---0---0-5-6-7-----5-------5----|


D|---------------------------------------------------------------------------|
A|---------------------------------------------------------------------------|
F|---------------------------------------------------------------------------|
C|----------------------------------------------------------------3----------|
G|----5---3---5---3---5-------------------5---3---5---------5-3-----5-3---3-5|
C|0-0---0---0---0---0---0-5-6-5-3-5-3-0-0---0---0---0-5-6-7-----5-------5----|

| / slide up
| \ slide down
| h hammer-on
| p pull-off
| ~ vibrato
| + harmonic
| x Mute note
===============================================================================

Like us on Facebook.....
-> Loading Time :0.0119 sec