Disciple Tabs & Lyrics by Slayer

Disciple

guitar tabs lyrics

Slayer

Album : God Hates Us All thrash metal PlayStop


-------------------------------------------------------------------------------
DISCIPLE - Slayer
-------------------------------------------------------------------------------
Tabbed by: GuitarHero_JP
Email: [email protected]

Guitar I, Jeff Hanneman: C# G# E B F# C#
Guitar II, Kerry King: C# G# E B F# C#

Q=188


Intro 4/4 2/4
Guitar I & II
E Q E Q E E H S S E S S E E E E E S S E S S E E E E E
|---------------|-----------||-----------------------|-----------------------|
|---------------|-----------||-----------------------|-----------------------|
|---------------|-----------||-----------------------|-----------------------|
|-5-2--5-8--7-2-|-----------||---------------9-------|---------------9-------|
|-5-2--5-8--7-2-|-----------||-----------------8-7---|-----------------8-7---|
|-3-0--3-6--5-0-|-----------||-0-0-0--0-0-0--------0-|-0-0-0--0-0-0--------0-|x6
|-----PM-----| |-----PM-----|
|Riff 1 End riff 1|

2/4
E E E E E E E E E Q.
|-----------------|-------|
|-----------------|-------|
|-----------------|-------|
|-9-----8-----7---|-------|
|---8-7---7-6---6-|-5-----|
|-----------------|-------|
|PM-| |PM-| |-PM-|

Verse 1 4/4 |Here is when it gets going
Guitar I & II
E E E E E E E E E E E E E E E E E E E E E E E E E E E E E E E E
|-----------------|-----------------| -----------------|-----------------|
|*----------------|----------------*| *----------------|----------------*|
|-----------------|-----------------| -----------------|-----------------|
|-----------------|-----------------| -----------------|-----------------|
|*----------------|----------------*| *----------------|----------------*|
|-3-3-2-0-3-4-3-0-|-3-3-2-0-3-4-3-0-|x2 -3-3-2-0-3-4-3-0-|-3-3-2-0-3-4-3-0-|x4

Chorus
Guitar I
W +W +W +W
|---------------|---------------|---------------|---------------|
|---------------|---------------|---------------|---------------|
|------9~~------|------(9)------|------(9)------|------(9)------|
|---------------|---------------|---------------|---------------|
|---------------|---------------|---------------|---------------|
|---------------|---------------|---------------|---------------|
|
|
|Guitar II
| S S E S S E S S E S S E S S E S S E S S E S S E
|---------------|---------------|---------------|---------------|
|---------------|---------------|---------------|---------------|
|---------------|---------------|---------------|---------------|
|---------------|---------------|---------------|---------------|
|---------------|---------------|---------------|---------------|
|-0-0-0--0-0-0--|-0-0-0--0-0-0--|-0-0-0--0-0-0--|-0-0-0--0-0-0--|

Guitar I & II
E E E E E E E E E E E E E E E E
|-----------------|-----------------|
|*----------------|----------------*|
|-----------------|-----------------|
|-4-4-5-6---------|-4-4-5-6---------|
|*4-4-5-6---------|-4-4-5-6--------*|
|-2-2-3-4-0-0-0-0-|-2-2-3-4-0-0-0-0-| x2
|Riff 2 End of Riff 2|
Verse

Chorus

Riff 1 x4

Solo Riff 2 played along
Guitar I
Q Q S S S S S S E S S S S S S S S S S S S S S S S
|-19b(20)--19b(20)-16-16-16-17-19-17-16--|-14-14-15-17-15-14-15-14-------------------------|
|----------------------------------------|-------------------------17-14-14-15-17-17-15-14-|
|----------------------------------------|-------------------------------------------------|
|----------------------------------------|-------------------------------------------------|
|----------------------------------------|-------------------------------------------------|
|----------------------------------------|-------------------------------------------------|

S S Q S S S S S S S S S S S S S S S S S S S S S S S S S S
|-----------------------------------------|-------------------------14-14-15-17-15-14-------|
|-----------------------------------------|----------------14-15-17-------------------17-15-|
|-16-14-16--------------------------------|-------14-15-17----------------------------------|
|--------------------14-------14-15----14-|-15-17-------------------------------------------|
|-----------14-15-17----15-17-------17----|-------------------------------------------------|
|-----------------------------------------|-------------------------------------------------|

Guitar I
S S S S H Q W W
|-------------------------|-------------------|-------------------|
|-14----------------------|-------------------|-------------------|
|----16-14-16-16----16----|------(16b18)------|------(r16)--------|
|-------------------------|-------------------|-------------------|
|-------------------------|-------------------|-------------------|
|-------------------------|-------------------|-------------------|
|
|
|Guitar II
| W +W
|-------------------|-------------------|
|-------------------|-------------------|
|-------------------|-------------------|
|------3------------|-------------------|
|------3------------|-------------------|
|------1------------|-------------------|

Break
Guitar I (Feedback)
<
W +W +W +W
|--------------|--------------|--------------|--------------|
|------5+~~----|------(5)-----|------(5)-----|------(5)-----|
|--------------|--------------|--------------|--------------|
|--------------|--------------|--------------|--------------|
|--------------|--------------|--------------|--------------|
|--------------|--------------|--------------|--------------|
|
|
|Guitar II
| E E S S E E E S S E E E S S S S S S S S E E S S E E E S S E
|-------------------------|---------------------|-------------------------|
|-------------------------|---------------------|-------------------------|
|-------------------------|---------------------|-------------------------|
|-------------------------|---------------------|-------------------------|
|-5-----------5-----------|-5-------------------|-5-----------5-----------|
|-3-0--0-0-0--3-0--0-0-0--|-3-3-2-2-2-2-2-2-2-2-|-3-0--0-0-0--3-0--0-0-0--|

E E S S S S S S S S S S S S
-----------------------------|
-----------------------------|
-----------------------------|
-----------------------------|
-5---------------------------|
-3-3-6-6-6-6-6-6-6-6-6-6-6-6-|

Guitar I
E Q. E Q. W E Q. E Q. E Q. E Q.
|-------------|-------------|-------------|-------------|
|-------------|-------------|-------------|-------------|
|-------------|-------------|-------------|-------------|
|-5-----5-----|-------------|-5-----5-----|-5-----8-----|
|-5-----5-----|-------------|-5-----5-----|-5-----8-----|
|-3-----3-----|-------------|-3-----3-----|-3-----6-----|
|
|
|Guitar II
| E E S S E E E S S E E E S S S S S S S S E E S S E E E S S E
|-------------------------|---------------------|-------------------------|
|-------------------------|---------------------|-------------------------|
|-------------------------|---------------------|-------------------------|
|-------------------------|---------------------|-------------------------|
|-5-----------5-----------|-5-------------------|-5-----------5-----------|
|-3-0--0-0-0--3-0--0-0-0--|-3-3-2-2-2-2-2-2-2-2-|-3-0--0-0-0--3-0--0-0-0--|
|Riff 3

E E S S E E Q.
-------------------|
-------------------|
-------------------|
-------------8-----|
-5-----------8-----|
-3-0--0-0-0--6-----|
End of riff 3|

Interlude
Guitar I & II
S S S S S S S S S S S S S S S S S S S S S S S S S S S S S S S S
|---------------------------------|---------------------------------|
|---------------------------------|---------------------------------|
|---------------------------------|---------------------------------|
|---------------------------------|---------------------------------|
|---------------------------------|-----------------7-7-7-7-7-7-7-7-|
|-0-0-0-0-0-0-0-0-2-2-2-2-2-2-2-2-|-0-0-0-0-0-0-0-0-----------------| x4

S S S S S S S S S S S S S S S S S S S S S S S S S S S S S S S S
|---------------------------------|---------------------------------|
|---------------------------------|---------------------------------|
|---------------------------------|---------------------------------|
|---------------------------------|---------------------------------|
|---------------------------------|---------------------------------|
|-5-5-5-5-5-5-5-5-4-4-4-4-4-4-4-4-|-0-0-0-0-0-0-0-0-1-1-1-1-1-1-1-1-|


S S S S S S S S S S S S S S S S S S S S S S S S S S S S S S S S
|---------------------------------|---------------------------------|
|---------------------------------|---------------------------------|
|---------------------------------|---------------------------------|
|---------------------------------|---------------------------------|
|---------------------------------|-----------------7-7-7-7-7-7-7-7-|
|-0-0-0-0-0-0-0-0-2-2-2-2-2-2-2-2-|-0-0-0-0-0-0-0-0-----------------| x4

S S S S S S S S S S S S S S S S S S S S S S S S S S S S S S S S
|---------------------------------|---------------------------------|
|---------------------------------|---------------------------------|
|---------------------------------|---------------------------------|
|---------------------------------|---------------------------------|
|---------------------------------|---------------------------------|
|-5-5-5-5-5-5-5-5-4-4-4-4-4-4-4-4-|-0-0-0-0-0-0-0-0-1-1-1-1-1-1-1-1-|

H H H Q Q H H W
|-----------|------------|-----------|---------|
|-----------|------------|-----------|---------|
|-----------|------------|------3----|----2----|
|-2----5----|-4----5--4--|-2----3----|----2----|
|-2----5----|-4----5--4--|-2----1----|----0----|
|-0----3----|-2----3--2--|-0---------|---------|
|Riff 4

H H H Q Q H H W
|-----------|------------|-----------|---------|
|-----------|------------|-----------|---------|
|-----------|------------|------3----|----2----|
|-2----5----|-4----5--4--|-2----3----|----2----|
|-2----5----|-4----5--4--|-2----1----|----0----|
|-0----3----|-2----3--2--|-0---------|---------|
End of riff 4|

Riff 3 x6

Riff 2 x4

Riff 4

Q=155
H H H Q Q H H W
|-----------|------------|-----------|---------|
|-----------|------------|-----------|---------|
|-----------|------------|------3----|----2----|
|-2----5----|-4----5--4--|-2----3----|----2----|
|-2----5----|-4----5--4--|-2----1----|----0----|
|-0----3----|-2----3--2--|-0---------|---------|

H H H Q Q H H W
|-----------|------------|-----------|---------|
|-----------|------------|-----------|---------|
|-----------|------------|------3----|----2----|
|-2----5----|-4----5--4--|-2----3----|----2----|
|-2----5----|-4----5--4--|-2----1----|----0----|
|-0----3----|-2----3--2--|-0---------|---------|

Outro Q=67
Guitar II
S S S S S S S S S S S S S S S S S S S S S S S S S S S S S S S S
|---------------------------------|---------------------------------|
|---------------------------------|---------------------------------|
|---------------------------------|---------------------------------|
|---------------------------------|---------------------------------|
|---------------------------------|---------------------------------|
|-3-3-3-6-6-6-2-2-2-2-2-2-2-2-2-2-|-3-3-3-6-6-6-5-5-5-2-2-2-2-2-2-2-|

S S S S S S S S S S S S S S S S S S S S S S S S S S S S S S S S
|---------------------------------|---------------------------------|
|---------------------------------|---------------------------------|
|---------------------------------|---------------------------------|
|---------------------------------|---------------------------------|
|---------------------------------|---------------------------------|
|-3-3-3-6-6-6-5-5-5-6-6-6-2-2-2-2-|-3-3-3-6-6-6-2-2-2-2-2-2-2-2-2-2-|

Guitar I & II
S S S S S S S S S S S S S S S S S S S S S S S S S S S S S S S S
|---------------------------------|---------------------------------|
|---------------------------------|---------------------------------|
|---------------------------------|---------------------------------|
|---------------------------------|---------------------------------|
|-5-5-5-8-8-8-4-4-4-4-4-4-4-4-4-4-|-5-5-5-8-8-8-7-7-7-4-4-4-4-4-4-4-|
|-3-3-3-6-6-6-2-2-2-2-2-2-2-2-2-2-|-3-3-3-6-6-6-5-5-5-2-2-2-2-2-2-2-|

S S S S S S S S S S S S S S S S S S S S S S S S S S S S S S S S
|---------------------------------|---------------------------------|
|---------------------------------|---------------------------------|
|---------------------------------|---------------------------------|
|---------------------------------|---------------------------------|
|-5-5-5-8-8-8-7-7-7-8-8-8-4-4-4-4-|-5-5-5-8-8-8-4-4-4-4-4-4-4-4-4-4-|
|-3-3-3-6-6-6-5-5-5-6-6-6-2-2-2-2-|-3-3-3-6-6-6-2-2-2-2-2-2-2-2-2-2-| x2

I hope you enjoy this tab! It took me ages so you better! lol

| / slide up
| \ slide down
| h hammer-on
| p pull-off
| ~ vibrato
| + harmonic
| x Mute note
===============================================================================


Like us on Facebook.....
-> Loading Time :0.0175 sec