Cry of Marianne Tabs & Lyrics by Ancient

Cry of Marianne

guitar tabs lyrics

Ancient

Album : The Cainian Chronicle black metal PlayStop



CRY OF MARIANNE
As recorded by Ancient
(From the 1996 Album THE CAINIAN CHRONICLE)

Transcribed by Anoop




F#sus4
x 9 11 0 0 x

Bm/G
x 10 12 0 0 x

Esus2/A
x 12 14 0 0 x

Bmaj7/D#
11 13 x 0 0 x
F#add11
14 13 x 0 0 x

F#add11/C#
9 13 x 0 0 x

D#m
11 9 8 x x x

B/D#
11 9 9 x x x
D#m6
11 9 10 x x x

D#m7
11 9 11 x x x

Gtr I (E A D F# B E) - 'Guitar 1'

Intro
Q=132
F#sus4
4/4
Gtr I
E E E E E E E E E E E E E E E E
|--------------------|--------------------|
|--------0-----------|--------0-----------|
|------0---0---------|------0---0---------|
|---11-------11---11-|---11-------11---11-|
|-9-------------9----|-9-------------9----|
|--------------------|--------------------|


Bm/G
E E E E E E E E E E E E E E E E
|----------------------|----------------------|
|---------0------------|---------0------------|
|-------0---0----------|-------0---0----------|
|----12-------12----12-|----12-------12----12-|
|-10-------------10----|-10-------------10----|
|----------------------|----------------------|


Esus2/A F#sus4
E E E E E E E E E E E E E E E E E E E E E E E E W
|----------------------|----------------------|--------------------|------|
|---------0------------|---------0------------|--------0-----------|------|
|-------0---0----------|-------0---0----------|------0---0---------|------|
|----14-------14----14-|----14-------14----14-|---11-------11---11-|------|
|-12-------------12----|-12-------------12----|-9-------------9----|-9----|
|----------------------|----------------------|--------------------|------|


Cry...
F#sus4
E E E E E E E E E E E E E E E E
|--------------------|--------------------|
|--------0-----------|--------0-----------|
|------0---0---------|------0---0---------|
|---11-------11---11-|---11-------11---11-|
|-9-------------9----|-9-------------9----|
|--------------------|--------------------|


Bm/G
E E E E E E E E E E E E E E E E
|----------------------|-----------------------|
|---------0------------|---------0-------------|
|-------0---0----------|-------0---0-----------|
|----12-------12----12-|----12-------12----12--|
|-10-------------10----|-10-------------10-----|
|----------------------|-----------------------|


Esus2/A F#sus4
E E E E E E E E E E E E E E E E E E E E E E E E W
|----------------------|----------------------|--------------------|------|
|---------0------------|---------0------------|--------0-----------|------|
|-------0---0----------|-------0---0----------|------0---0---------|------|
|----14-------14----14-|----14-------14----14-|---11-------11---11-|------|
|-12-------------12----|-12-------------12----|-9-------------9----|-9----|
|----------------------|----------------------|--------------------|------|


Cry of Marianne
F#sus4
E E E E E E E E E E E E E E E E
||---------------------|--------------------|
||o--------0-----------|--------0-----------|
||-------0---0---------|------0---0---------|
||----11-------11---11-|---11-------11---11-|
||o-9-------------9----|-9-------------9----|
||---------------------|--------------------|


Bm/G
E E E E E E E E E E E E E E E E
|----------------------|----------------------|
|---------0------------|---------0------------|
|-------0---0----------|-------0---0----------|
|----12-------12----12-|----12-------12----12-|
|-10-------------10----|-10-------------10----|
|----------------------|----------------------|


Esus2/A
E E E E E E E E E E E E E E E E
|----------------------|----------------------|
|---------0------------|---------0------------|
|-------0---0----------|-------0---0----------|
|----14-------14----14-|----14-------14----14-|
|-12-------------12----|-12-------------12----|
|----------------------|----------------------|


1.,2.
F#sus4
E E E E E E E E E E E E E E E E 3x
|--------------------|----------------------||
|--------0-----------|--------0------------o||
|------0---0---------|------0---0-----------||
|---11-------11---11-|---11-------11---11---||
|-9-------------9----|-9-------------9-----o||
|--------------------|----------------------||


3.
Bmaj7/D#
W E E E E E E E E
|----------||-----------------------|
|----------||o---------0------------|
|----------||--------0---0----------|
|----------||-----------------------|
|-9--------||o----13-------13----13-|
|----------||--11-------------11----|


F#add11
E E E E E E E E E E E E E E E E
|----------------------|-----------------------|
|---------0------------|---------0-------------|
|-------0---0----------|-------0---0-----------|
|----------------------|-----------------------|
|----13-------13----13-|----13-------13----13--|
|-11-------------11----|-14-------------14-----|


F#add11 Bmaj7/D#
E E E E E E E E E E E E E E E E
|----------------------|----------------------|
|---------0------------|---------0------------|
|-------0---0----------|-------0---0----------|
|----------------------|----------------------|
|----13-------13----13-|----13-------13----13-|
|-14-------------14----|-11-------------11----|


F#add11/C#
E E E E E E E E E E E E E E E E
|----------------------|---------------------|
|---------0------------|--------0------------|
|-------0---0----------|------0---0----------|
|----------------------|---------------------|
|----13-------13----13-|---13-------13---13--|
|-11-------------11----|-9-------------9-----|


F#add11/C# D#m
E E E E E E E E E E E E E E E E
|---------------------||--------------------|
|--------0-----------o||--------------------|
|------0---0----------||--------------------|
|---------------------||------8------8------|
|---13-------13---13-o||----9------9------9-|
|-9-------------9-----||-11-----11-----11---|


B/D# D#m6
E E E E E E E E E E E E E E E E
|--------------------|-----------------------|
|--------------------|-----------------------|
|--------------------|-----------------------|
|------9------9------|------10------10-------|
|----9------9------9-|----9-------9-------9--|
|-11-----11-----11---|-11------11------11----|


D#m7 D#m
E E E E E E E E E E E E E E E E
|----------------------|--------------------|
|----------------------|--------------------|
|----------------------|--------------------|
|------11------11------|------8------8------|
|----9-------9-------9-|----9------9------9-|
|-11------11------11---|-11-----11-----11---|


B/D# D#m6
E E E E E E E E E E E E E E E E
|--------------------|-----------------------|
|--------------------|-----------------------|
|--------------------|-----------------------|
|------9------9------|------10------10-------|
|----9------9------9-|----9-------9-------9--|
|-11-----11-----11---|-11------11------11----|


D#m7 F#sus4
E E E E E E E E E E E E E E E E
|-----------------------||---------------------|
|-----------------------||o--------0-----------|
|-----------------------||-------0---0---------|
|------11------11----11-||----11-------11---11-|
|----9-------9----------||o-9-------------9----|
|-11------11------11----||---------------------|


Bm/G
E E E E E E E E E E E E E E E E
|--------------------|-----------------------|
|--------0-----------|---------0-------------|
|------0---0---------|-------0---0-----------|
|---11-------11---11-|----12-------12----12--|
|-9-------------9----|-10-------------10-----|
|--------------------|-----------------------|


Bm/G Esus2/A
E E E E E E E E E E E E E E E E
|----------------------|----------------------|
|---------0------------|---------0------------|
|-------0---0----------|-------0---0----------|
|----12-------12----12-|----14-------14----14-|
|-10-------------10----|-12-------------12----|
|----------------------|----------------------|


F#sus4
E E E E E E E E E E E E E E E E
|----------------------|---------------------|
|---------0------------|--------0------------|
|-------0---0----------|------0---0----------|
|----14-------14----14-|---11-------11---11--|
|-12-------------12----|-9-------------9-----|
|----------------------|---------------------|


Outro
F#sus4 F#sus4
E E E E E E E E 3x E E E E E E E E
|---------------------||--------------------|
|--------0-----------o||--------0-----------|
|------0---0----------||------0---0---------|
|---11-------11---11--||---11-------11---11-|
|-9-------------9----o||-9-------------9----|
|---------------------||--------------------|


Bm/G
E E E E E E E E E E E E E E E E
|--------------------|-----------------------|
|--------0-----------|---------0-------------|
|------0---0---------|-------0---0-----------|
|---11-------11---11-|----12-------12----12--|
|-9-------------9----|-10-------------10-----|
|--------------------|-----------------------|


Bm/G Esus2/A
E E E E E E E E E E E E E E E E
|----------------------|----------------------|
|---------0------------|---------0------------|
|-------0---0----------|-------0---0----------|
|----12-------12----12-|----14-------14----14-|
|-10-------------10----|-12-------------12----|
|----------------------|----------------------|


F#sus4
E E E E E E E E E E E E E E E E
|----------------------|---------------------*|
|---------0------------|--------0------------*|
|-------0---0----------|------0---0----------*|
|----14-------14----14-|---11-------11---11--*|
|-12-------------12----|-9-------------9-----*|
|----------------------|---------------------*|



Duration Legend
---------------
W - whole; H - half; Q - quarter; E - 8th; S - 16th; T - 32nd; X - 64th; a - acciaccatura
+ - note tied to previous; . - note dotted; .. - note double dotted
Uncapitalized letters represent notes that are staccato (1/2 duration)
Irregular groupings are notated above the duration line
Duration letters will always appear directly above the note/fret number it represents the
duration for. Duration letters with no fret number below them represent rests. Multi-
bar rests are notated in the form Wxn, where n is the number of bars to rest for. Low
melody durations appear below the staff

Tablature Legend
----------------
h - hammer-on
p - pull-off
b - bend
pb - pre-bend
r - bend release (if no number after the r, then release immediately)
/\ - slide into or out of (from/to "nowhere")
s - legato slide
S - shift slide
- natural harmonic
[n] - artificial harmonic
n(n) - tapped harmonic
~ - vibrato
tr - trill
T - tap
TP - trem. picking
PM - palm muting
\n/ - tremolo bar dip; n = amount to dip
\n - tremolo bar down
n/ - tremolo bar up
/n\ - tremolo bar inverted dip
= - hold bend; also acts as connecting device for hammers/pulls
- volume swell (louder/softer)
x - on rhythm slash represents muted slash
o - on rhythm slash represents single note slash

Misc Legend
-----------
| - bar
|| - double bar
||o - repeat start
o|| - repeat end
*| - double bar (ending)
: - bar (freetime)
$ - Segno
& - Coda
Tempo markers - = BPM(8/16=s8/s16), where s8 = swing 8ths, s16 = swing 16ths



Like us on Facebook.....
-> Loading Time :0.0122 sec