Crimson Day Chords & Lyrics by Avenged Sevenfold

Crimson Day

guitar chords lyrics

Avenged Sevenfold

Album : Hail to the King heavy metal PlayStop


-------------------------------------------------------------------------------
Crimson Day - Avenged Sevenfold
-------------------------------------------------------------------------------
Tabbed by: mckhew
E-mail: mckhewy@gmail.com


Tuning: Standard
Intro: Em D G C Am D Em

e|---------------------------------------------------------------------------------|
B|-------------3-------3-------5------------5-----------5---------------3-------5--|
G|-----------2---2---------------5--------5---5-----------7-----------4-------4----|
D|-----5---4---------5---5---5-----5------------5-----5-----5-----2-5-----2-5------|
A|---7---7-----------------3---------3--0---------7-7---------7--------------------|
E|-0---------------3--------------------------------------------0------------------|



Em D G C
Dark years brought endless rain

Am D Em G
Out in the cold I lost my way

Em D G C
But storms won't last to clear the air, for something new

Am D Em
The sun came out and brought you through


Am Em
A lifetime full of words to say

D C
I hope that time will slow the passing day



Em D G C


C G C G
I've been wrong times over, and I've been shamed with no words to find

D C Em G Am D G
But if the sun will rise, bring us tomorrow, walk with me, crimson day



Em D G C
Don't speak, no use for words

Am D G
Lie in my arms sleep secure

Em D
I wonder what you're dreaming of

G C
Lands rare and far

Am D Em
A time must fly to reach the stars


Am Em
A lifetime full of words to say

D C
I hope that time will slow the passing day


Em D G C


C G C G
I've been wrong times over, and I've been shamed with no words to find

D C Em G Am D G
But if the sun will rise, bring us tomorrow, walk with me, crimson day



(Solo) C D Em Am D Em Am D Em D C Am D Em



Am Em
I've come so far to meet you here

D C
To share this life with the one I hold so dear

Am Em
And I won't speak but what is true

D C D
The world outside created just for you, is for you, for you...


C G C G
I've been wrong times over, and I've been shamed with no words to find

D C Em G Am D G
But if the sun will rise, bring us tomorrow, walk with me, crimson day

Like us on Facebook.....
-> Loading Time :0.0105 sec