Coming Home Tabs & Lyrics by Avenged Sevenfold

Coming Home

guitar tabs lyrics

Avenged Sevenfold

Album : Hail to the King heavy metal PlayStop


----------------------------------------------------------------------------
Coming Home
Avenged Sevenfold
----------------------------------------------------------------------------

“Coming Home” has to be my favorite song from their newest album “Hail to the
King”. It packs so much emotion and spirit into six and a half minutes. Also, that
guitar solo is a masterpiece. Synyster Gates will always be an idol guitarist. Enjoy!

Username: dkm817 (same on X box live)

Youtube Cover: http://www.youtube.com/watch?v=xbI_AkPwYgo
Email: [email protected]

Guitar 1 Rhythmic (C# G# C# F# A# D#)
Guitar 2 Lead (C# G# C# F# A# D#)
Guitar 3 Backup (C# G# C# F# A# D#)

NOTE: This was exported off of guitar pro.

Guitar 1

Starts at (00:32)
PM PM PM PM PM
Q E E E E E E
-------|-------|-------|-------|-------|-------------------------|
-------|-------|-------|-------|-------|-------------------------|
-------|-------|-------|-------|-------|-------------------------|
-------|-------|-------|-------|-------|--7-------------------8--|
-------|-------|-------|-------|-------|--5----5--5--5--5--5--5--|
-------|-------|-------|-------|-------|-------------------------|


PM PM PM PM PM PM PM PM PM PM PM PM PM PM PM PM PM
Q E E E E E E Q E E E E E E Q E E E E E E
-------------------------|-------------------------|-------------------------|
-------------------------|-------------------------|-------------------------|
-------------------------|-------------------------|-------------------------|
--L----------------------|--5-------------------7--|--L----------------------|
--L----5--5--5--5--5--5--|--5----5--5--5--5--5--5--|--L----5--5--5--5--5--5--|
-------------------------|-------------------------|-------------------------|


PM PM PM PM PM PM PM PM PM PM PM PM PM PM PM PM
Q E E E E E E Q E E E E E E E E E E E E E E
-------------------------|-------------------------|--------------------------|
-------------------------|-------------------------|--------------------------|
-------------------------|-------------------------|--------------------------|
--7-------------------8--|--L----------------------|--5--------3--------2-----|
--5----5--5--5--5--5--5--|--L----5--5--5--5--5--5--|--3--3--3--3--3--3--3--3--|
-------------------------|-------------------------|--------------------------|


PM PM PM PM PM PM PM PM PM PM PM PM PM PM PM PM
E E E E E E E E Q E E E E E E Q E E E E E E
--------------------------|-------------------------|-------------------------|
--------------------------|-------------------------|-------------------------|
--------------------------|-------------------------|-------------------------|
-----0--------2-----3-----|--7-------------------8--|--L----------------------|
--3--3--3--3--3--3--3--3--|--5----5--5--5--5--5--5--|--L----5--5--5--5--5--5--|
--------------------------|-------------------------|-------------------------|


PM PM PM PM PM PM PM PM PM PM PM PM PM PM PM PM
Q E E E E E E Q E E E E E E Q E E E E E E
-------------------------|-------------------------|-------------------------|
-------------------------|-------------------------|-------------------------|
-------------------------|-------------------------|-------------------------|
--5-------------------7--|--L----------------------|--7-------------------8--|
--5----5--5--5--5--5--5--|--L----5--5--5--5--5--5--|--5----5--5--5--5--5--5--|
-------------------------|-------------------------|-------------------------|


PM PM PM PM PM PM
Q E E E E E E Q. Q. Q E Q. Q Q
-------------------------|---------------------|----------------------|
-------------------------|---------------------|----------------------|
-------------------------|---------------------|----------------------|
--L----------------------|--5------3------2----|--L--0------2----3----|
--L----5--5--5--5--5--5--|--3------3------3----|--L--3------3----3----|
-------------------------|---------------------|----------------------|


PM PM PM PM PM PM PM PM PM PM PM
E E E E E E E E E E E E E E E E
--------------------------|--------------------------|
--------------------------|--------------------------|
--------------------------|--------------------------|
--7--7-----------------8--|--8--8--------------------|
--5--5--5--5--5--5--5--5--|--5--5--5--5--5--5--5--5--|
--------------------------|--------------------------|


PM PM PM PM PM PM PM PM PM PM PM
E E E E E E E E E E E E E E E E
--------------------------|--------------------------|
--------------------------|--------------------------|
--------------------------|--------------------------|
--5--5-----------------7--|--7--7--------------------|
--5--5--5--5--5--5--5--5--|--5--5--5--5--5--5--5--5--|
--------------------------|--------------------------|


PM PM PM PM PM PM PM PM PM PM PM
E E E E E E E E E E E E E E E E Q. Q. Q
--------------------------|--------------------------|---------------------|
--------------------------|--------------------------|---------------------|
--------------------------|--------------------------|---------------------|
--7--7-----------------8--|--8--8--------------------|--5------3------2----|
--5--5--5--5--5--5--5--5--|--5--5--5--5--5--5--5--5--|--3------3------3----|
--------------------------|--------------------------|---------------------|


PM PM PM PM PM PM PM PM PM PM PM
E Q. Q Q Q E E E E E E E E E E E E E E
----------------------|-------------------------|--------------------------|
----------------------|-------------------------|--------------------------|
----------------------|-------------------------|--------------------------|
--L--0------2----3----|--7-------------------8--|--L--8--------------------|
--L--3------3----3----|--5----5--5--5--5--5--5--|--L--5--5--5--5--5--5--5--|
----------------------|-------------------------|--------------------------|


PM PM PM PM PM PM PM PM PM PM PM PM PM PM PM PM
Q E E E E E E E E E E E E E E Q E E E E E E
-------------------------|--------------------------|-------------------------|
-------------------------|--------------------------|-------------------------|
-------------------------|--------------------------|-------------------------|
--5-------------------7--|--L--7--------------------|--7-------------------8--|
--5----5--5--5--5--5--5--|--L--5--5--5--5--5--5--5--|--5----5--5--5--5--5--5--|
-------------------------|--------------------------|-------------------------|


PM PM PM PM PM PM
E E E E E E E E Q. Q. Q E Q. Q Q
--------------------------|---------------------|----------------------|
--------------------------|---------------------|----------------------|
--------------------------|---------------------|----------------------|
--L--8--------------------|--5------3------2----|--L--0------2----3----|
--L--5--5--5--5--5--5--5--|--3------3------3----|--L--3------3----3----|
--------------------------|---------------------|----------------------|


PM PM PM PM PM PM PM PM PM PM PM PM PM PM PM PM
Q E E E E E E E E E E E E E E Q E E E E E E
-------------------------|--------------------------|-------------------------|
-------------------------|--------------------------|-------------------------|
-------------------------|--------------------------|-------------------------|
--7-------------------8--|--L--8--------------------|--5-------------------7--|
--5----5--5--5--5--5--5--|--L--5--5--5--5--5--5--5--|--5----5--5--5--5--5--5--|
-------------------------|--------------------------|-------------------------|


PM PM PM PM PM PM PM PM PM PM PM PM PM PM PM PM PM
E E E E E E E E Q E E E E E E E E E E E E E E
--------------------------|-------------------------|--------------------------|
--------------------------|-------------------------|--------------------------|
--------------------------|-------------------------|--------------------------|
--L--7--------------------|--7-------------------8--|--L--8--------------------|
--L--5--5--5--5--5--5--5--|--5----5--5--5--5--5--5--|--L--5--5--5--5--5--5--5--|
--------------------------|-------------------------|--------------------------|


Q. Q. Q E Q. Q Q H. Q
---------------------|----------------------|--------------------|
---------------------|----------------------|--------------------|
---------------------|----------------------|--------------------|
--5------3------2----|--L--0------2----3----|--1------------1----|
--3------3------3----|--L--3------3----3----|--1------------1----|
---------------------|----------------------|--1------------1----|


Q H Q E E E E E E E E E E E E E E E E
---------------------|--------------------------|--------------------------|
---------------------|--------------------------|--------------------------|
---------------------|--------------------------|--------------------------|
--L----1--------L----|--------------------------|--------------------------|
--L----1--------L----|--5--6-----3--5-----1--3--|-----0--1-----0--1--0-----|
--L----1--------L----|--------------------------|-----------------------3--|


E E E E E E E E E E E E E E E E
--------------------------|--------------------------|
--------------------------|--------------------------|
--------------------------|--------------------------|
--5--5--5--7--7--7--8--8--|--8--8--5--5--7--7--8--8--|
--5--5--5--5--5--5--5--5--|--5--5--5--5--5--5--5--5--|
--5--5--5--5--5--5--5--5--|--5--5--5--5--5--5--5--5--|


E E E E E E E E E E E E E E E E
--------------------------|--------------------------|
--------------------------|--------------------------|
--3--3--3-----------------|--------------------------|
--x--x--x--7--7--7--3--3--|--3--3--3--3--5--5--7--7--|
--3--3--3--3--3--3--3--3--|--3--3--3--3--3--3--3--3--|
--3--3--3--3--3--3--3--3--|--3--3--3--3--3--3--3--3--|


E E E E E E E E E E E E E E E E
--------------------------|--------------------------|
--------------------------|--------------------------|
--3--3--3--2--2--2--------|--------------------------|
--x--x--x--x--x--x--3--3--|--3--3--3--3--0--0--3--3--|
--1--1--1--1--1--1--1--1--|--1--1--1--1--1--1--1--1--|
--1--1--1--1--1--1--1--1--|--1--1--1--1--1--1--1--1--|


E E E E E E E E E E E E E E E E
--------------------------|--------------------------|
--------------------------|--------------------------|
--------------------------|--------------------------|
--3--3--3--3--------3--3--|--3--3--------3--3--3--3--|
--3--3--3--3--------3--3--|--3--3--------3--3--3--3--|
--3--3--3--3--------3--3--|--3--3--------3--3--3--3--|


E E E E E E E E E E E E E E E E
--------------------------|--------------------------|
--------------------------|--------------------------|
--------------------------|--------------------------|
--5--5--5--7--7--7--8--8--|--8--8--5--5--7--7--8--8--|
--5--5--5--5--5--5--5--5--|--5--5--5--5--5--5--5--5--|
--5--5--5--5--5--5--5--5--|--5--5--5--5--5--5--5--5--|


E E E E E E E E E E E E E E E E
--------------------------|--------------------------|
--------------------------|--------------------------|
--3--3--3-----------------|--------------------------|
--x--x--x--7--7--7--3--3--|--3--3--3--3--5--5--7--7--|
--3--3--3--3--3--3--3--3--|--3--3--3--3--3--3--3--3--|
--3--3--3--3--3--3--3--3--|--3--3--3--3--3--3--3--3--|


E E E E E E E E E E E E E E E E
--------------------------|--------------------------|
--------------------------|--------------------------|
--3--3--3--2--2--2--------|--------------------------|
--x--x--x--x--x--x--3--3--|--3--3--3--3--0--0--3--3--|
--1--1--1--1--1--1--1--1--|--1--1--1--1--1--1--1--1--|
--1--1--1--1--1--1--1--1--|--1--1--1--1--1--1--1--1--|


PM PM PM PM PM
E E E E E E E E E E E E E E E E Q E E E E E E
--------------------------|--------------------------|-------------------------|
--------------------------|--------------------------|-------------------------|
--------------------------|--------------------------|-------------------------|
--3--3--3--3--------3--3--|--3--3--------3--3--3--3--|-------------------------|
--3--3--3--3--------3--3--|--3--3--------3--3--3--3--|--5-------------------6--|
--3--3--3--3--------3--3--|--3--3--------3--3--3--3--|--5----5--5--5--5--5--5--|


PM PM PM PM PM PM PM PM PM PM PM PM PM PM PM PM PM
E E E E E E E E Q E E E E E E E E E E E E E E
--------------------------|-------------------------|--------------------------|
--------------------------|-------------------------|--------------------------|
--------------------------|-------------------------|--------------------------|
--------------------------|-------------------------|--------------------------|
--L--6--------------------|--3-------------------5--|--L--5--------------------|
--L--5--5--5--5--5--5--5--|--5----5--5--5--5--5--5--|--L--5--5--5--5--5--5--5--|


PM PM PM PM PM PM PM PM PM PM PM PM PM PM PM PM
Q E E E E E E E E E E E E E E Q E E E E E E
-------------------------|--------------------------|-------------------------|
-------------------------|--------------------------|-------------------------|
-------------------------|--------------------------|-------------------------|
--7-------------------8--|--L--8--------------------|--5-------------------7--|
--5----5--5--5--5--5--5--|--L--5--5--5--5--5--5--5--|--5----5--5--5--5--5--5--|
-------------------------|--------------------------|-------------------------|


PM PM PM PM PM PM PM PM PM PM PM PM PM PM PM PM PM
E E E E E E E E Q E E E E E E E E E E E E E E
--------------------------|-------------------------|--------------------------|
--------------------------|-------------------------|--------------------------|
--------------------------|-------------------------|--------------------------|
--L--7--------------------|--7-------------------8--|--L--8--------------------|
--L--5--5--5--5--5--5--5--|--5----5--5--5--5--5--5--|--L--5--5--5--5--5--5--5--|
--------------------------|-------------------------|--------------------------|


PM PM PM PM PM
Q. Q. Q E Q. Q Q Q E E E E E E
---------------------|----------------------|-------------------------|
---------------------|----------------------|-------------------------|
---------------------|----------------------|-------------------------|
--5------3------2----|--L--0------2----3----|--7-------------------8--|
--3------3------3----|--L--3------3----3----|--5----5--5--5--5--5--5--|
---------------------|----------------------|-------------------------|


PM PM PM PM PM PM PM PM PM PM PM PM PM PM PM PM PM
E E E E E E E E Q E E E E E E E E E E E E E E
--------------------------|-------------------------|--------------------------|
--------------------------|-------------------------|--------------------------|
--------------------------|-------------------------|--------------------------|
--L--8--------------------|--5-------------------7--|--L--7--------------------|
--L--5--5--5--5--5--5--5--|--5----5--5--5--5--5--5--|--L--5--5--5--5--5--5--5--|
--------------------------|-------------------------|--------------------------|


PM PM PM PM PM PM PM PM PM PM PM
Q E E E E E E E E E E E E E E Q. Q. Q
-------------------------|--------------------------|---------------------|
-------------------------|--------------------------|---------------------|
-------------------------|--------------------------|---------------------|
--7-------------------8--|--L--8--------------------|--5------3------2----|
--5----5--5--5--5--5--5--|--L--5--5--5--5--5--5--5--|--3------3------3----|
-------------------------|--------------------------|---------------------|


E Q. Q Q H. Q Q H Q
----------------------|--------------------|---------------------|
----------------------|--------------------|---------------------|
----------------------|--------------------|---------------------|
--L--0------2----3----|--1------------1----|--L----1--------L----|
--L--3------3----3----|--1------------1----|--L----1--------L----|
----------------------|--1------------1----|--L----1--------L----|


E E E E E E E E E E E E E E E E
--------------------------|--------------------------|
--------------------------|--------------------------|
--------------------------|--------------------------|
--------------------------|--------------------------|
--5--6-----3--5-----1--3--|-----0--1-----0--1--0-----|
--------------------------|-----------------------3--|


E E E E E E E E E E E E E E E E
--------------------------|--------------------------|
--------------------------|--------------------------|
--------------------------|--------------------------|
--5--5--5--7--7--7--8--8--|--8--8--5--5--7--7--8--8--|
--5--5--5--5--5--5--5--5--|--5--5--5--5--5--5--5--5--|
--5--5--5--5--5--5--5--5--|--5--5--5--5--5--5--5--5--|


E E E E E E E E E E E E E E E E
--------------------------|--------------------------|
--------------------------|--------------------------|
--3--3--3-----------------|--------------------------|
--x--x--x--7--7--7--3--3--|--3--3--3--3--5--5--7--7--|
--3--3--3--3--3--3--3--3--|--3--3--3--3--3--3--3--3--|
--3--3--3--3--3--3--3--3--|--3--3--3--3--3--3--3--3--|


E E E E E E E E E E E E E E E E
--------------------------|--------------------------|
--------------------------|--------------------------|
--3--3--3--2--2--2--------|--------------------------|
--x--x--x--x--x--x--3--3--|--3--3--3--3--0--0--3--3--|
--1--1--1--1--1--1--1--1--|--1--1--1--1--1--1--1--1--|
--1--1--1--1--1--1--1--1--|--1--1--1--1--1--1--1--1--|


E E E E E E E E E E E E E E E E
--------------------------|--------------------------|
--------------------------|--------------------------|
--------------------------|--------------------------|
--3--3--3--3--------3--3--|--3--3--------3--3--3--3--|
--3--3--3--3--------3--3--|--3--3--------3--3--3--3--|
--3--3--3--3--------3--3--|--3--3--------3--3--3--3--|


E E E E E E E E E E E E E E E E
--------------------------|--------------------------|
--------------------------|--------------------------|
--------------------------|--------------------------|
--5--5--5--7--7--7--8--8--|--8--8--5--5--7--7--8--8--|
--5--5--5--5--5--5--5--5--|--5--5--5--5--5--5--5--5--|
--5--5--5--5--5--5--5--5--|--5--5--5--5--5--5--5--5--|


E E E E E E E E E E E E E E E E
--------------------------|--------------------------|
--------------------------|--------------------------|
--3--3--3-----------------|--------------------------|
--x--x--x--7--7--7--3--3--|--3--3--3--3--5--5--7--7--|
--3--3--3--3--3--3--3--3--|--3--3--3--3--3--3--3--3--|
--3--3--3--3--3--3--3--3--|--3--3--3--3--3--3--3--3--|


E E E E E E E E E E E E E E E E
--------------------------|--------------------------|
--------------------------|--------------------------|
--3--3--3--2--2--2--------|--------------------------|
--x--x--x--x--x--x--3--3--|--3--3--3--3--0--0--3--3--|
--1--1--1--1--1--1--1--1--|--1--1--1--1--1--1--1--1--|
--1--1--1--1--1--1--1--1--|--1--1--1--1--1--1--1--1--|


E E E E E E E E E E E E E E E E E E E E E E Q
--------------------------|--------------------------|-------------------------|
--------------------------|--------------------------|-------------------------|
--------------------------|--------------------------|-------------------------|
--3--3--3--3--------3--3--|--3--3--------3--3--3--3--|--5--------5--------5----|
--3--3--3--3--------3--3--|--3--3--------3--3--3--3--|--5--------5--------5----|
--3--3--3--3--------3--3--|--3--3--------3--3--3--3--|--5--------5--------5----|


W E E E E E E Q W
-------------------|-------------------------|-------------------|
-------------------|-------------------------|-------------------|
-------------------|-------------------------|-------------------|
--L----------------|--3--------3--------3----|--L----------------|
--L----------------|--3--------3--------3----|--L----------------|
--L----------------|--3--------3--------3----|--L----------------|


PM PM PM PM PM PM
E E E E E E Q W Q E E E E E E
-------------------------|-------------------|-------------------------|
-------------------------|-------------------|-------------------------|
-------------------------|-------------------|-------------------------|
--1--------1--------1----|--L----------------|--3----3--3--3--3--3--3--|
--1--------1--------1----|--L----------------|--3----3--3--3--3--3--3--|
--1--------1--------1----|--L----------------|--3----3--3--3--3--3--3--|


PM PM PM PM PM PM PM PM PM PM
E E E E E E E E Q E Q E Q E Q E E E E E
--------------------------|-----------------------|-------------------------|
--------------------------|-----------------------|-------------------------|
--------------------------|-----------------------|-------------------------|
--3--3--3--3--3--3--3--3--|--7-------8-------5----|-----7----L--0--0--0--0--|
--3--3--3--3--3--3--3--3--|--5----5--5----5--5----|--5--5----L--0--0--0--0--|
--3--3--3--3--3--3--3--3--|-----------------------|-------------0--0--0--0--|


PM PM PM PM PM PM PM PM PM
Q E Q E Q E Q E E E E E Q E Q E Q
-----------------------|-------------------------|-----------------------|
-----------------------|-------------------------|-----------------------|
-----------------------|-------------------------|-----------------------|
--7-------8-------5----|-----7----L--0--0--0--0--|--7-------8-------5----|
--5----5--5----5--5----|--5--5----L--0--0--0--0--|--5----5--5----5--5----|
-----------------------|-------------0--0--0--0--|-----------------------|


PM PM PM PM PM
E Q E E E E E Q. Q. Q E Q. Q Q
-------------------------|---------------------|----------------------|
-------------------------|---------------------|----------------------|
-------------------------|---------------------|----------------------|
-----7----L--0--0--0--0--|--5------3------2----|--L--0------2----3----|
--5--5----L--0--0--0--0--|--3------3------3----|--L--3------3----3----|
-------------0--0--0--0--|---------------------|----------------------|


PM PM PM PM PM PM PM PM PM
Q E Q E Q E Q E E E E E Q E Q E Q
-----------------------|-------------------------|-----------------------|
-----------------------|-------------------------|-----------------------|
-----------------------|-------------------------|-----------------------|
--7-------8-------5----|-----7----L--0--0--0--0--|--7-------8-------5----|
--5----5--5----5--5----|--5--5----L--0--0--0--0--|--5----5--5----5--5----|
-----------------------|-------------0--0--0--0--|-----------------------|


PM PM PM PM PM PM PM PM PM PM PM PM
E Q E E E E E Q E Q E Q E Q E E E E E
-------------------------|-----------------------|-------------------------|
-------------------------|-----------------------|-------------------------|
-------------------------|-----------------------|-------------------------|
-----7----L--0--0--0--0--|--7-------8-------5----|-----7----L--0--0--0--0--|
--5--5----L--0--0--0--0--|--5----5--5----5--5----|--5--5----L--0--0--0--0--|
-------------0--0--0--0--|-----------------------|-------------0--0--0--0--|


Q. Q. Q E Q. Q Q W
---------------------|----------------------|-------------------|
---------------------|----------------------|-------------------|
---------------------|----------------------|--3----------------|
--5------3------2----|--L--0------2----3----|--3----------------|
--3------3------3----|--L--3------3----3----|--1----------------|
---------------------|----------------------|-------------------|


W W W
-------------------|-------------------|-------------------|
-------------------|-------------------|-------------------|
--L----------------|--5----------------|--L----------------|
--L----------------|--5----------------|--L----------------|
--L----------------|--3----------------|--L----------------|
-------------------|-------------------|-------------------|


PM PM PM PM PM PM PM PM PM PM PM PM PM PM PM PM
Q E E E E E E E E E E E E E E Q E E E E E E
-------------------------|--------------------------|-------------------------|
-------------------------|--------------------------|-------------------------|
-------------------------|--------------------------|-------------------------|
--0----0--0--0--0--0--0--|--0--0--0--0--3--5--3--0--|--0----0--0--0--0--0--0--|
--0----0--0--0--0--0--0--|--0--0--0--0--3--5--3--0--|--0----0--0--0--0--0--0--|
--0----0--0--0--0--0--0--|--0--0--0--0--3--5--3--0--|--0----0--0--0--0--0--0--|


PM PM PM PM
E E E E E E E E W W
--------------------------|-------------------|-------------------|
--------------------------|-------------------|-------------------|
--------------------------|--3----------------|--L----------------|
--0--0--0--0--3--5--3--0--|--3----------------|--L----------------|
--0--0--0--0--3--5--3--0--|--1----------------|--L----------------|
--0--0--0--0--3--5--3--0--|-------------------|-------------------|


PM PM PM PM PM PM
W W Q E E E E E E
-------------------|-------------------|-------------------------|
-------------------|-------------------|-------------------------|
--5----------------|--L----------------|-------------------------|
--5----------------|--L----------------|--0----0--0--0--0--0--0--|
--3----------------|--L----------------|--0----0--0--0--0--0--0--|
-------------------|-------------------|--0----0--0--0--0--0--0--|


PM PM PM PM PM PM PM PM PM PM PM PM PM PM
E E E E E E E E Q E E E E E E E E E E E E E E
--------------------------|-------------------------|--------------------------|
--------------------------|-------------------------|--------------------------|
--------------------------|-------------------------|--------------------------|
--0--0--0--0--3--5--3--0--|--0----0--0--0--0--0--0--|--0--0--0--0--3--5--3--0--|
--0--0--0--0--3--5--3--0--|--0----0--0--0--0--0--0--|--0--0--0--0--3--5--3--0--|
--0--0--0--0--3--5--3--0--|--0----0--0--0--0--0--0--|--0--0--0--0--3--5--3--0--|


Q E Q E Q E E Q E E E E Q E Q E Q
-----------------------|-------------------------|-----------------------|
-----------------------|-------------------------|-----------------------|
--3----3--3----3--3----|--L--3--3----3--3--3--3--|--5----5--5----5--5----|
--3----3--3----3--3----|--L--3--3----3--3--3--3--|--5----5--5----5--5----|
--1----1--1----1--1----|--L--1--1----1--1--1--1--|--3----3--3----3--3----|
-----------------------|-------------------------|-----------------------|


E E Q E E E E Q E Q E Q E E Q E E E E
-------------------------|-----------------------|-------------------------|
-------------------------|-----------------------|-------------------------|
--L--5--5----5--5--5--5--|--7----7--7----7--7----|--L--7--7----7--7--7--7--|
--L--5--5----5--5--5--5--|--7----7--7----7--7----|--L--7--7----7--7--7--7--|
--L--3--3----3--3--3--3--|--5----5--5----5--5----|--L--5--5----5--5--5--5--|
-------------------------|-----------------------|-------------------------|


Q E Q E Q E E Q E E E E Q E Q E Q
-----------------------|-------------------------|-----------------------|
-----------------------|-------------------------|-----------------------|
--5----5--5----5--5----|--L--5--5----5--5--5--5--|--3----3--3----3--3----|
--5----5--5----5--5----|--L--5--5----5--5--5--5--|--3----3--3----3--3----|
--3----3--3----3--3----|--L--3--3----3--3--3--3--|--1----1--1----1--1----|
-----------------------|-------------------------|-----------------------|


E E Q E E E E Q E Q E Q E E Q E E E E
-------------------------|-----------------------|-------------------------|
-------------------------|-----------------------|-------------------------|
--L--3--3----3--3--3--3--|--5----5--5----5--5----|--L--5--5----5--5--5--5--|
--L--3--3----3--3--3--3--|--5----5--5----5--5----|--L--5--5----5--5--5--5--|
--L--1--1----1--1--1--1--|--3----3--3----3--3----|--L--3--3----3--3--3--3--|
-------------------------|-----------------------|-------------------------|


Q E Q E Q E E Q E E E E Q E Q E Q
-----------------------|-------------------------|-----------------------|
-----------------------|-------------------------|-----------------------|
--7----7--7----7--7----|--L--7--7----7--7--7--7--|--5----5--5----5--5----|
--7----7--7----7--7----|--L--7--7----7--7--7--7--|--5----5--5----5--5----|
--5----5--5----5--5----|--L--5--5----5--5--5--5--|--3----3--3----3--3----|
-----------------------|-------------------------|-----------------------|


E E Q E E E E Q. E E E Q E E E E Q E E
-------------------------|-----------------------|-------------------------|
-------------------------|-----------------------|-------------------------|
--L--5--5----5--5--5--5--|--3------3--3--3--3----|--L--3--3--3--3----3--3--|
--L--5--5----5--5--5--5--|--3------3--3--3--3----|--L--3--3--3--3----3--3--|
--L--3--3----3--3--3--3--|--1------1--1--1--1----|-----1--1--1--1----1--1--|
-------------------------|-----------------------|-------------------------|


Q. E E E Q E E E E Q E E E E E E E E E E
-----------------------|-------------------------|--------------------------|
-----------------------|-------------------------|--------------------------|
-----------------------|-------------------------|--5--5--5--5--5--5--5--5--|
--5------5--5--5--5----|--L--5--5--5--5----5--5--|--5--5--5--5--5--5--5--5--|
--5------5--5--5--5----|-----5--5--5--5----5--5--|--3--3--3--3--3--3--3--3--|
--5------5--5--5--5----|--L--5--5--5--5----5--5--|--------------------------|


E E E E E E E E E E E E E E E E
--------------------------|--------------------------|
--------------------------|--------------------------|
--5--5--5--5--5--5--5--5--|--6--6--6--6--6--6--6--6--|
--5--5--5--5--5--5--5--5--|--6--6--6--6--6--6--6--6--|
--3--3--3--3--3--3--3--3--|--4--4--4--4--4--4--4--4--|
--------------------------|--------------------------|


PM PM PM PM PM PM PM PM PM PM PM
E E E E E E E E Q E E E E E E E E E E E E E E
--------------------------|-------------------------|--------------------------|
--------------------------|-------------------------|--------------------------|
--6--6--6--6--6--6--6--6--|-------------------------|--------------------------|
--6--6--6--6--6--6--6--6--|--7-------------------8--|--L--8--------------------|
--4--4--4--4--4--4--4--4--|--5----5--5--5--5--5--5--|--L--5--5--5--5--5--5--5--|
--------------------------|-------------------------|--------------------------|


PM PM PM PM PM PM PM PM PM PM PM PM PM PM PM PM
Q E E E E E E E E E E E E E E Q E E E E E E
-------------------------|--------------------------|-------------------------|
-------------------------|--------------------------|-------------------------|
-------------------------|--------------------------|-------------------------|
--5-------------------7--|--L--7--------------------|--7-------------------8--|
--5----5--5--5--5--5--5--|--L--5--5--5--5--5--5--5--|--5----5--5--5--5--5--5--|
-------------------------|--------------------------|-------------------------|


PM PM PM PM PM PM
E E E E E E E E Q. Q. Q E Q. Q Q
--------------------------|---------------------|----------------------|
--------------------------|---------------------|----------------------|
--------------------------|---------------------|----------------------|
--L--8--------------------|--5------3------2----|--L--0------2----3----|
--L--5--5--5--5--5--5--5--|--3------3------3----|--L--3------3----3----|
--------------------------|---------------------|----------------------|


PM PM PM PM PM PM PM PM PM PM PM PM PM PM PM PM
Q E E E E E E E E E E E E E E Q E E E E E E
-------------------------|--------------------------|-------------------------|
-------------------------|--------------------------|-------------------------|
-------------------------|--------------------------|-------------------------|
--7-------------------8--|--L--8--------------------|--5-------------------7--|
--5----5--5--5--5--5--5--|--L--5--5--5--5--5--5--5--|--5----5--5--5--5--5--5--|
-------------------------|--------------------------|-------------------------|


PM PM PM PM PM PM PM PM PM PM PM PM PM PM PM PM PM
E E E E E E E E Q E E E E E E E E E E E E E E
--------------------------|-------------------------|--------------------------|
--------------------------|-------------------------|--------------------------|
--------------------------|-------------------------|--------------------------|
--L--7--------------------|--7-------------------8--|--L--8--------------------|
--L--5--5--5--5--5--5--5--|--5----5--5--5--5--5--5--|--L--5--5--5--5--5--5--5--|
--------------------------|-------------------------|--------------------------|


PM PM PM PM PM
Q. Q. Q E Q. Q Q Q E E E E E E
---------------------|----------------------|-------------------------|
---------------------|----------------------|-------------------------|
---------------------|----------------------|-------------------------|
--5------3------2----|--L--0------2----3----|--7-------------------8--|
--3------3------3----|--L--3------3----3----|--5----5--5--5--5--5--5--|
---------------------|----------------------|-------------------------|


PM PM PM PM PM PM PM PM PM PM PM PM PM PM PM PM PM
E E E E E E E E Q E E E E E E E E E E E E E E
--------------------------|-------------------------|--------------------------|
--------------------------|-------------------------|--------------------------|
--------------------------|-------------------------|--------------------------|
--L--8--------------------|--5-------------------7--|--L--7--------------------|
--L--5--5--5--5--5--5--5--|--5----5--5--5--5--5--5--|--L--5--5--5--5--5--5--5--|
--------------------------|-------------------------|--------------------------|


PM PM PM PM PM PM PM PM PM PM PM
Q E E E E E E E E E E E E E E Q. Q. Q
-------------------------|--------------------------|---------------------|
-------------------------|--------------------------|---------------------|
-------------------------|--------------------------|---------------------|
--7-------------------8--|--L--8--------------------|--5------3------2----|
--5----5--5--5--5--5--5--|--L--5--5--5--5--5--5--5--|--3------3------3----|
-------------------------|--------------------------|---------------------|


E Q. Q Q H. Q Q H Q
----------------------|--------------------|---------------------|
----------------------|--------------------|---------------------|
----------------------|--------------------|---------------------|
--L--0------2----3----|--1------------1----|--L----1--------L----|
--L--3------3----3----|--1------------1----|--L----1--------L----|
----------------------|--1------------1----|--L----1--------L----|


E E E E E E E E E E E E E E E E
--------------------------|--------------------------|
--------------------------|--------------------------|
--------------------------|--------------------------|
--------------------------|--------------------------|
--5--6-----3--5-----1--3--|-----0--1-----0--1--0-----|
--------------------------|-----------------------3--|


E E E E E E E E E E E E E E E E
--------------------------|--------------------------|
--------------------------|--------------------------|
--------------------------|--------------------------|
--5--5--5--7--7--7--8--8--|--8--8--5--5--7--7--8--8--|
--5--5--5--5--5--5--5--5--|--5--5--5--5--5--5--5--5--|
--5--5--5--5--5--5--5--5--|--5--5--5--5--5--5--5--5--|


E E E E E E E E E E E E E E E E
--------------------------|--------------------------|
--------------------------|--------------------------|
--3--3--3-----------------|--------------------------|
--x--x--x--7--7--7--3--3--|--3--3--3--3--5--5--7--7--|
--3--3--3--3--3--3--3--3--|--3--3--3--3--3--3--3--3--|
--3--3--3--3--3--3--3--3--|--3--3--3--3--3--3--3--3--|


E E E E E E E E E E E E E E E E
--------------------------|--------------------------|
--------------------------|--------------------------|
--3--3--3--2--2--2--------|--------------------------|
--x--x--x--x--x--x--3--3--|--3--3--3--3--0--0--3--3--|
--1--1--1--1--1--1--1--1--|--1--1--1--1--1--1--1--1--|
--1--1--1--1--1--1--1--1--|--1--1--1--1--1--1--1--1--|


E E E E E E E E E E E E E E E E
--------------------------|--------------------------|
--------------------------|--------------------------|
--------------------------|--------------------------|
--3--3--3--3--------3--3--|--3--3--------3--3--3--3--|
--3--3--3--3--------3--3--|--3--3--------3--3--3--3--|
--3--3--3--3--------3--3--|--3--3--------3--3--3--3--|


E E E E E E E E E E E E E E E E
--------------------------|--------------------------|
--------------------------|--------------------------|
--------------------------|--------------------------|
--5--5--5--7--7--7--8--8--|--8--8--5--5--7--7--8--8--|
--5--5--5--5--5--5--5--5--|--5--5--5--5--5--5--5--5--|
--5--5--5--5--5--5--5--5--|--5--5--5--5--5--5--5--5--|


E E E E E E E E E E E E E E E E
--------------------------|--------------------------|
--------------------------|--------------------------|
--3--3--3-----------------|--------------------------|
--x--x--x--7--7--7--3--3--|--3--3--3--3--5--5--7--7--|
--3--3--3--3--3--3--3--3--|--3--3--3--3--3--3--3--3--|
--3--3--3--3--3--3--3--3--|--3--3--3--3--3--3--3--3--|


E E E E E E E E E E E E E E E E
--------------------------|--------------------------|
--------------------------|--------------------------|
--3--3--3--2--2--2--------|--------------------------|
--x--x--x--x--x--x--3--3--|--3--3--3--3--0--0--3--3--|
--1--1--1--1--1--1--1--1--|--1--1--1--1--1--1--1--1--|
--1--1--1--1--1--1--1--1--|--1--1--1--1--1--1--1--1--|


E E E E E E E E E E E E E E E E
--------------------------|--------------------------|
--------------------------|--------------------------|
--------------------------|--------------------------|
--3--3--3--3--------3--3--|--3--3--------3--3--3--3--|
--3--3--3--3--------3--3--|--3--3--------3--3--3--3--|
--3--3--3--3--------3--3--|--3--3--------3--3--3--3--|


E E E E E E E E E E E E E E E E
--------------------------|--------------------------|
--------------------------|--------------------------|
--------------------------|--------------------------|
--5--5--5--7--7--7--8--8--|--8--8--5--5--7--7--8--8--|
--5--5--5--5--5--5--5--5--|--5--5--5--5--5--5--5--5--|
--5--5--5--5--5--5--5--5--|--5--5--5--5--5--5--5--5--|


E E E E E E E E E E E E E E E E
--------------------------|--------------------------|
--------------------------|--------------------------|
--3--3--3-----------------|--------------------------|
--x--x--x--7--7--7--3--3--|--3--3--3--3--5--5--7--7--|
--3--3--3--3--3--3--3--3--|--3--3--3--3--3--3--3--3--|
--3--3--3--3--3--3--3--3--|--3--3--3--3--3--3--3--3--|


E E E E E E E E E E E E E E E E
--------------------------|--------------------------|
--------------------------|--------------------------|
--3--3--3--2--2--2--------|--------------------------|
--x--x--x--x--x--x--3--3--|--3--3--3--3--0--0--3--3--|
--1--1--1--1--1--1--1--1--|--1--1--1--1--1--1--1--1--|
--1--1--1--1--1--1--1--1--|--1--1--1--1--1--1--1--1--|


E E E E E E E E E E E E E E E E
--------------------------|--------------------------|
--------------------------|--------------------------|
--------------------------|--------------------------|
--3--3--3--3--3--3--3--3--|--3--3--3--3--3--3--3--3--|
--3--3--3--3--3--3--3--3--|--3--3--3--3--3--3--3--3--|
--3--3--3--3--3--3--3--3--|--3--3--3--3--3--3--3--3--|


E E E E E E E E E E E E E E E E
--------------------------|--------------------------|
--------------------------|--------------------------|
--------------------------|--------------------------|
--5--5--5--7--7--7--8--8--|--8--8--5--5--7--7--8--8--|
--5--5--5--5--5--5--5--5--|--5--5--5--5--5--5--5--5--|
--5--5--5--5--5--5--5--5--|--5--5--5--5--5--5--5--5--|


E E E E E E E E E E E E E E E E
--------------------------|--------------------------|
--------------------------|--------------------------|
--3--3--3-----------------|--------------------------|
--x--x--x--7--7--7--3--3--|--3--3--3--3--5--5--7--7--|
--3--3--3--3--3--3--3--3--|--3--3--3--3--3--3--3--3--|
--3--3--3--3--3--3--3--3--|--3--3--3--3--3--3--3--3--|


E E E E E E E E E E E E E E E E
--------------------------|--------------------------|
--------------------------|--------------------------|
--3--3--3--2--2--2--------|--------------------------|
--x--x--x--x--x--x--3--3--|--3--3--3--3--0--0--3--3--|
--1--1--1--1--1--1--1--1--|--1--1--1--1--1--1--1--1--|
--1--1--1--1--1--1--1--1--|--1--1--1--1--1--1--1--1--|


E E E E E E E E E E E E E E E E
--------------------------|--------------------------|
--------------------------|--------------------------|
--------------------------|--------------------------|
--3--3--3--3--3--3--3--3--|--3--3--3--3--3--3--3--3--|
--3--3--3--3--3--3--3--3--|--3--3--3--3--3--3--3--3--|
--3--3--3--3--3--3--3--3--|--3--3--3--3--3--3--3--3--|


E E E E E E E E E E E E E E E E
--------------------------|--------------------------|
--------------------------|--------------------------|
--------------------------|--------------------------|
--5--5--5--7--7--7--8--8--|--8--8--5--5--7--7--8--8--|
--5--5--5--5--5--5--5--5--|--5--5--5--5--5--5--5--5--|
--5--5--5--5--5--5--5--5--|--5--5--5--5--5--5--5--5--|


E E E E E E E E E E E E E E E E
--------------------------|--------------------------|
--------------------------|--------------------------|
--3--3--3-----------------|--------------------------|
--x--x--x--7--7--7--3--3--|--3--3--3--3--5--5--7--7--|
--3--3--3--3--3--3--3--3--|--3--3--3--3--3--3--3--3--|
--3--3--3--3--3--3--3--3--|--3--3--3--3--3--3--3--3--|


E E E E E E E E E E E E E E E E
--------------------------|--------------------------|
--------------------------|--------------------------|
--3--3--3--2--2--2--------|--------------------------|
--x--x--x--x--x--x--3--3--|--3--3--3--3--0--0--3--3--|
--1--1--1--1--1--1--1--1--|--1--1--1--1--1--1--1--1--|
--1--1--1--1--1--1--1--1--|--1--1--1--1--1--1--1--1--|


E E E E E E E E E E E E E E E E
--------------------------|--------------------------|
--------------------------|--------------------------|
--------------------------|--------------------------|
--3--3--3--3--3--3--3--3--|--3--3--3--3--3--3--3--3--|
--3--3--3--3--3--3--3--3--|--3--3--3--3--3--3--3--3--|
--3--3--3--3--3--3--3--3--|--3--3--3--3--3--3--3--3--|


E E E E E E E E E E E E E E E E
--------------------------|--------------------------|
--------------------------|--------------------------|
--------------------------|--------------------------|
--5--5--5--7--7--7--8--8--|--8--8--5--5--7--7--8--8--|
--5--5--5--5--5--5--5--5--|--5--5--5--5--5--5--5--5--|
--5--5--5--5--5--5--5--5--|--5--5--5--5--5--5--5--5--|


E E E E E E E E E E E E E E E E
--------------------------|--------------------------|
--------------------------|--------------------------|
--3--3--3-----------------|--------------------------|
--x--x--x--7--7--7--3--3--|--3--3--3--3--5--5--7--7--|
--3--3--3--3--3--3--3--3--|--3--3--3--3--3--3--3--3--|
--3--3--3--3--3--3--3--3--|--3--3--3--3--3--3--3--3--|


E E E E E E E E E E E E E E E E
--------------------------|--------------------------|
--------------------------|--------------------------|
--3--3--3--2--2--2--------|--------------------------|
--x--x--x--x--x--x--3--3--|--3--3--3--3--0--0--3--3--|
--1--1--1--1--1--1--1--1--|--1--1--1--1--1--1--1--1--|
--1--1--1--1--1--1--1--1--|--1--1--1--1--1--1--1--1--|


E E E E E E E E E E E E E E E E
--------------------------|--------------------------|
--------------------------|--------------------------|
--------------------------|--------------------------|
--3--3--3--3--3--3--3--3--|--3--3--3--3--3--3--3--3--|
--3--3--3--3--3--3--3--3--|--3--3--3--3--3--3--3--3--|
--3--3--3--3--3--3--3--3--|--3--3--3--3--3--3--3--3--|


E E E E E E E E E E E E E E E E
--------------------------|--------------------------|
--------------------------|--------------------------|
--------------------------|--------------------------|
--5--5--5--7--7--7--8--8--|--8--8--5--5--7--7--8--8--|
--5--5--5--5--5--5--5--5--|--5--5--5--5--5--5--5--5--|
--5--5--5--5--5--5--5--5--|--5--5--5--5--5--5--5--5--|


E E E E E E E E E E E E E E E E
--------------------------|--------------------------|
--------------------------|--------------------------|
--3--3--3-----------------|--------------------------|
--x--x--x--7--7--7--3--3--|--3--3--3--3--5--5--7--7--|
--3--3--3--3--3--3--3--3--|--3--3--3--3--3--3--3--3--|
--3--3--3--3--3--3--3--3--|--3--3--3--3--3--3--3--3--|


E E E E E E E E E E E E E E E E
--------------------------|--------------------------|
--------------------------|--------------------------|
--3--3--3--2--2--2--------|--------------------------|
--x--x--x--x--x--x--3--3--|--3--3--3--3--0--0--3--3--|
--1--1--1--1--1--1--1--1--|--1--1--1--1--1--1--1--1--|
--1--1--1--1--1--1--1--1--|--1--1--1--1--1--1--1--1--|


E E E E E E E E E E E E E E E E
--------------------------|--------------------------|
--------------------------|--------------------------|
--------------------------|--------------------------|
--3--3--3--3--3--3--3--3--|--3--3--3--3--3--3--3--3--|
--3--3--3--3--3--3--3--3--|--3--3--3--3--3--3--3--3--|
--3--3--3--3--3--3--3--3--|--3--3--3--3--3--3--3--3--|


E E E E E E E E E E E E E E E E
--------------------------|--------------------------|
--------------------------|--------------------------|
--------------------------|--------------------------|
--5--5--5--7--7--7--8--8--|--8--8--5--5--7--7--8--8--|
--5--5--5--5--5--5--5--5--|--5--5--5--5--5--5--5--5--|
--5--5--5--5--5--5--5--5--|--5--5--5--5--5--5--5--5--|


E E E E E E E E E E E E E E E E
--------------------------|--------------------------|
--------------------------|--------------------------|
--3--3--3-----------------|--------------------------|
--x--x--x--7--7--7--3--3--|--3--3--3--3--5--5--7--7--|
--3--3--3--3--3--3--3--3--|--3--3--3--3--3--3--3--3--|
--3--3--3--3--3--3--3--3--|--3--3--3--3--3--3--3--3--|


E E E E E E E E E E E E E E E E
--------------------------|--------------------------|
--------------------------|--------------------------|
--3--3--3--2--2--2--------|--------------------------|
--x--x--x--x--x--x--3--3--|--3--3--3--3--0--0--3--3--|
--1--1--1--1--1--1--1--1--|--1--1--1--1--1--1--1--1--|
--1--1--1--1--1--1--1--1--|--1--1--1--1--1--1--1--1--|


E E E E E E E E E E E E E E E E
--------------------------|--------------------------||
--------------------------|--------------------------||
--------------------------|--------------------------||
--3--3--3--3--3--3--3--3--|--3--3--3--3--3--3--3--3--||
--3--3--3--3--3--3--3--3--|--3--3--3--3--3--3--3--3--||
--3--3--3--3--3--3--3--3--|--3--3--3--3--3--3--3--3--||

Guitar 2

E E E E E E E E E E E E E E E E
D#||--------------------------|--------------------------|
A#||--------------------------|--------------------------|
F#||--------------------------|--------------------------|
C#||--------7--L--L--7--L--8--|--L--L--8--L--L--L--8--L--|
G#||--5--5--L--5--5--L--5--L--|--L--5--L--5--5--5--L--5--|
C#||--------------------------|--------------------------|


E E E E E E E E E E E E E E E E
--------------------------|--------------------------|
--------------------------|--------------------------|
--------------------------|--------------------------|
--------5--L--L--5--L--7--|--L--L--7--L--L--L--7--L--|
--5--5--L--5--5--L--5--L--|--L--5--L--5--5--5--L--5--|
--------------------------|--------------------------|


E E E E E E E E E E E E E E E E
--------------------------|--------------------------|
--------------------------|--------------------------|
--------------------------|--------------------------|
--------3--L--L--3--L--5--|--L--L--5--L--L--L--5--L--|
--5--5--L--5--5--L--5--L--|--L--5--L--5--5--5--L--5--|
--------------------------|--------------------------|


E E E E E E E E E E E E E E E E
--------------------------|--------------------------|
--------------------------|--------------------------|
--------------------------|--------------------------|
--5--L--L--3--L--L--2--L--|--L--0--L--L--2--L--3--L--|
-----3--3--L--3--3--L--3--|--3--L--3--3--L--3--L--3--|
--------------------------|--------------------------|


E E E E E E E E E E E E E E E E
--------------------------|--------------------------|
--------------------------|--------------------------|
--------------------------|--------------------------|
--------7--L--L--7--L--8--|--L--L--8--L--L--L--8--L--|
--5--5--L--5--5--L--5--L--|--L--5--L--5--5--5--L--5--|
--------------------------|--------------------------|


E E E E E E E E E E E E E E E E
--------------------------|--------------------------|
--------------------------|--------------------------|
--------------------------|--------------------------|
--------5--L--L--5--L--7--|--L--L--7--L--L--L--7--L--|
--5--5--L--5--5--L--5--L--|--L--5--L--5--5--5--L--5--|
--------------------------|--------------------------|


E E E E E E E E E E E E E E E E
--------------------------|--------------------------|
--------------------------|--------------------------|
--------------------------|--------------------------|
--------3--L--L--3--L--5--|--L--L--5--L--L--L--5--L--|
--5--5--L--5--5--L--5--L--|--L--5--L--5--5--5--L--5--|
--------------------------|--------------------------|


E E E E E E E E E E E E E E E E
--------------------------|--------------------------|
--------------------------|--------------------------|
--------------------------|--------------------------|
--5--L--L--3--L--L--2--L--|--L--0--L--L--2--L--3--L--|
-----3--3--L--3--3--L--3--|--3--L--3--3--L--3--L--3--|
--------------------------|--------------------------|


E E E E E E E E E E E E E E E E
--------------------------|--------------------------|
--------------------------|--------------------------|
--------------------------|--------------------------|
--------7--L--L--7--L--8--|--L--L--8--L--L--L--8--L--|
--5--5--L--5--5--L--5--L--|--L--5--L--5--5--5--L--5--|
--------------------------|--------------------------|


E E E E E E E E E E E E E E E E
--------------------------|--------------------------|
--------------------------|--------------------------|
--------------------------|--------------------------|
--------5--L--L--5--L--7--|--L--L--7--L--L--L--7--L--|
--5--5--L--5--5--L--5--L--|--L--5--L--5--5--5--L--5--|
--------------------------|--------------------------|


E E E E E E E E E E E E E E E E
--------------------------|--------------------------|
--------------------------|--------------------------|
--------------------------|--------------------------|
--------3--L--L--3--L--5--|--L--L--5--L--L--L--5--L--|
--5--5--L--5--5--L--5--L--|--L--5--L--5--5--5--L--5--|
--------------------------|--------------------------|


E E E E E E E E E E E E E E E E
--------------------------|--------------------------|
--------------------------|--------------------------|
--------------------------|--------------------------|
--5--L--L--3--L--L--2--L--|--L--0--L--L--2--L--3--L--|
-----3--3--L--3--3--L--3--|--3--L--3--3--L--3--L--3--|
--------------------------|--------------------------|


E E E E E E E E E E E E E E E E
--------------------------|--------------------------|
--------------------------|--------------------------|
--------------------------|--------------------------|
--------7--L--L--7--L--8--|--L--L--8--L--L--L--8--L--|
--5--5--L--5--5--L--5--L--|--L--5--L--5--5--5--L--5--|
--------------------------|--------------------------|


E E E E E E E E E E E E E E E E
--------------------------|--------------------------|
--------------------------|--------------------------|
--------------------------|--------------------------|
--------5--L--L--5--L--7--|--L--L--7--L--L--L--7--L--|
--5--5--L--5--5--L--5--L--|--L--5--L--5--5--5--L--5--|
--------------------------|--------------------------|


E E E E E E E E E E E E E E E E
--------------------------|--------------------------|
--------------------------|--------------------------|
--------------------------|--------------------------|
--------3--L--L--3--L--5--|--L--L--5--L--L--L--5--L--|
--5--5--L--5--5--L--5--L--|--L--5--L--5--5--5--L--5--|
--------------------------|--------------------------|


E E E E E E E E E E E E E E E E
--------------------------|--------------------------|
--------------------------|--------------------------|
--------------------------|--------------------------|
--5--L--L--3--L--L--2--L--|--L--0--L--L--2--L--3--L--|
-----3--3--L--3--3--L--3--|--3--L--3--3--L--3--L--3--|
--------------------------|--------------------------|


E E E E E E E E E E E E E E E E
--------------------------|--------------------------|
--------------------------|--------------------------|
--------------------------|--------------------------|
--------7--L--L--7--L--8--|--L--L--8--L--L--L--8--L--|
--5--5--L--5--5--L--5--L--|--L--5--L--5--5--5--L--5--|
--------------------------|--------------------------|


E E E E E E E E E E E E E E E E
--------------------------|--------------------------|
--------------------------|--------------------------|
--------------------------|--------------------------|
--------5--L--L--5--L--7--|--L--L--7--L--L--L--7--L--|
--5--5--L--5--5--L--5--L--|--L--5--L--5--5--5--L--5--|
--------------------------|--------------------------|


E E E E E E E E E E E E E E E E W
--------------------------|--------------------------|-------------------|
--------------------------|--------------------------|-------------------|
--------------------------|--------------------------|--5----------------|
--------3--L--L--3--L--5--|--L--L--5--L--L--L--5--L--|--5----------------|
--5--5--L--5--5--L--5--L--|--L--5--L--5--5--5--L--5--|--3----------------|
--------------------------|--------------------------|-------------------|


W E E E Q E E E
-------------------|--------------------------------|
-------------------|--------------------------------|
--L----------------|--14----------------------------|
--L----------------|------15--14--12----14--15--12--|
--L----------------|--------------------------------|
-------------------|--------------------------------|


E E E Q E E E E E E Q E E E
--------------------------------|--------------------------------|
--------------------------------|--------------------------------|
--15----------------------------|--------------------------------|
------15--14--12----14--15--12--|--10--14--12--10----12--14--12--|
--------------------------------|--------------------------------|
--------------------------------|--------------------------------|


E E Q E E E E E E E Q E E E
---------------------------------|--------------------------------|
---------------------------------|--------------------------------|
---------------------------------|--14----------------------------|
--14--12--14b----14--12------12--|------15--14--12----14--15--12--|
-------------------------12------|--------------------------------|
---------------------------------|--------------------------------|


E E E Q E E E Q. Q. Q
--------------------------------|------------------------|
--------------------------------|------------------------|
--15----------------------------|--12--------------------|
------15--14--12----14--15--12--|----------15------14----|
--------------------------------|------------------------|
--------------------------------|------------------------|


PM PM PM PM PM PM PM PM PM PM PM
E Q. Q Q Q E E E E E E E E E E E E E E
-------------------------|-------------------------|--------------------------|
-------------------------|-------------------------|--------------------------|
-------------------------|-------------------------|--------------------------|
--L--12------14----15----|--7-------------------8--|--L--8--------------------|
-------------------------|--5----5--5--5--5--5--5--|--L--5--5--5--5--5--5--5--|
-------------------------|-------------------------|--------------------------|


PM PM PM PM PM PM PM PM PM PM PM PM PM PM PM PM
Q E E E E E E E E E E E E E E Q E E E E E E
-------------------------|--------------------------|-------------------------|
-------------------------|--------------------------|-------------------------|
-------------------------|--------------------------|-------------------------|
--5-------------------7--|--L--7--------------------|--7-------------------8--|
--5----5--5--5--5--5--5--|--L--5--5--5--5--5--5--5--|--5----5--5--5--5--5--5--|
-------------------------|--------------------------|-------------------------|


PM PM PM PM PM PM
E E E E E E E E Q. Q. Q E Q. Q Q
--------------------------|---------------------|----------------------|
--------------------------|---------------------|----------------------|
--------------------------|---------------------|----------------------|
--L--8--------------------|--5------3------2----|--L--0------2----3----|
--L--5--5--5--5--5--5--5--|--3------3------3----|--L--3------3----3----|
--------------------------|---------------------|----------------------|


PM PM PM PM PM PM PM PM PM PM PM PM PM PM PM PM
Q E E E E E E E E E E E E E E Q E E E E E E
-------------------------|--------------------------|-------------------------|
-------------------------|--------------------------|-------------------------|
-------------------------|--------------------------|-------------------------|
--7-------------------8--|--L--8--------------------|--5-------------------7--|
--5----5--5--5--5--5--5--|--L--5--5--5--5--5--5--5--|--5----5--5--5--5--5--5--|
-------------------------|--------------------------|-------------------------|


PM PM PM PM PM PM PM PM PM PM PM PM PM PM PM PM PM
E E E E E E E E Q E E E E E E E E E E E E E E
--------------------------|-------------------------|--------------------------|
--------------------------|-------------------------|--------------------------|
--------------------------|-------------------------|--------------------------|
--L--7--------------------|--7-------------------8--|--L--8--------------------|
--L--5--5--5--5--5--5--5--|--5----5--5--5--5--5--5--|--L--5--5--5--5--5--5--5--|
--------------------------|-------------------------|--------------------------|


Q. Q. Q E Q. Q Q H. Q
---------------------|----------------------|--------------------|
---------------------|----------------------|--------------------|
---------------------|----------------------|--------------------|
--5------3------2----|--L--0------2----3----|--1------------1----|
--3------3------3----|--L--3------3----3----|--1------------1----|
---------------------|----------------------|--1------------1----|


Q H Q E E E E E E E E E E E E E E E E
---------------------|--------------------------|--------------------------|
---------------------|--------------------------|------

Like us on Facebook.....
-> Loading Time :0.0247 sec