Chickenshit Conformist Tabs & Lyrics by Dead Kennedys

Chickenshit Conformist

guitar tabs lyrics

Dead Kennedys

Album : Bedtime for Democracy punk PlayStop


I noticed that the other tab for this song is higher than it should be so I tabbed this one. Enjoy

Intro

e|--------------------------------------------------|
B|--------------------------------------------------|
G|----------------------------------------------3---|
D|-5---5---3--------3--4--5---5---5---3--------3--5-|
A|--5-------3------3-------5---5-------3------3-----|
E|---3-------1-1-1----------3---3-------1-1-1-------|


Verse 1

e|-----------------------------------------------------|
B|-----------------------------------------------------|
G|------------------------3-3--------------------------|
D|-5-4-3-3-3-3-0-3-0-3-5-5---5-5-3-3-3-3-3-3-0-3-0-3-5-|
A|-----------------------------------------------------|
E|-----------------------------------------------------|

Verse 2
e|-------------------------------|
B|-------------------------------|
G|-7-7-7-7-7-7-7-----------------|
D|-5-5-5-5-5-5-5-5-5-5-5-7-7-7-7-|
A|---------------3-3-3-3-5-5-5-5-|
E|-------------------------------|

Chorus

e|-----------------------|
B|-----------------------|
G|---------5-5-5-5-------|
D|-5-5-5-5-3-3-3-3--5--2-|
A|-3-3-3-3----------3--0-|
E|-----------------------|

Solo

e|-------------------------------------------------------------------------|
B|-------------------------------------------------------------------------|
G|-7-7-7-------7-7-7-9-9-9-7-7-7-------7-7-7-9-9-9-7-7-7-------7-7-7-9-9-9-|
D|-5-5-5-7-7-7-5-5-5-7-7-7-5-5-5-7-7-7-5-5-5-7-7-7-5-5-5-7-7-7-5-5-5-7-7-7-|
A|-------5-5-5-------------------5-5-5-------------------5-5-5-------------|
E|-------------------------------------------------------------------------|

e|---------------------|
B|---------------------|
G|---------5-4-5---5-2-|
D|-5-5-5-5-3-2-3-5-3-0-|
A|-3-3-3-3-------3-----|
E|---------------------|

Verse 3
e|-------------------------|
B|-------------------------|
G|-7-7-7-------7-7-7-9-9-9-|
D|-5-5-5-7-7-7-5-5-5-7-7-7-|
A|-------5-5-5-------------|
E|-------------------------|

Here's The Order

Intro x3
Verse 1 x1
Intro x1
Verse 2 x15
Chorus x1
Intro x5
Verse 1 x1
Verse 2 x13
Chorus x1
Solo x1
Intro x2
Verse x1
Intro x1
Verse x12
Chorus x1
Verse 3 x13
Chorus x1


Like us on Facebook.....
-> Loading Time :0.0677 sec