Cheat to Win Tabs & Lyrics by Slapstick

Cheat to Win

guitar tabs lyrics

Slapstick

Album : Slapstick ska punk PlayStop


Slapstick

Cheat To Win

This song is so good, by an amazing band
You'll have to work the rhythem out, but it's pretty simple

Enjoy

Intro


E----9-10---------
B----9-10---9-10--
G----9-9----9-10--
D----9-9----9-9---
A----7-7----9-9---
E-----------7-7---

Verse

E-----------------
B-----------------
G---7-----4-------
D---7--7--4--7--7-
A---5--7--6--7--7-
E------5-----5--9-

Pre-Chorus

E-----------------
B-----------------
G---7-------------
D---7---7---9-----
A---9---7---9-----
E-------5---7-----

Chorus

E-----------------
B-----------------
G---9---6---------
D---9---6---7---9-
A---7---4---7---9-
E-----------5---7-

Song Order

Intro
Verse
Pre-Chorus
Chorus
Intro
Verse
Pre-Chorus
Chorus
Verse
End On G--9-
D--9-
A--7-

Like us on Facebook.....
-> Loading Time :0.0199 sec