Canada Has Better Heroin Tabs & Lyrics by NOFX

Canada Has Better Heroin

guitar tabs lyrics

NOFX

Album : 2006-08-13: Warped Tour, Montreal, QC, Canada punk PlayStop


Canada Has Better Heroin

Once again, another live only song.

* = x6 % = x5

E|--------------------------------------------------|
B|------*-----------*--------------*-----------*----|
G|---*-5---*--*--*-5---*--%-----*-5---*--*--*-7---*-|
D|--5--5--5--5--5--5--5--5-----2--5--7--7--7--7--5--|

A|--5--3--5--5--5--3--5--5--5--2--3--7--7--7--5--5--|
E|--3--3--3--3--3--3--3--3--2--0-----5--5--5-----3--|

That's just repeated through the whole song, and at the
end the last 3 chords are just sustained (classic rock
outro :p)

SOLO (MELVIN)
E|--------------------------------------|
B|--12-12-13-15--------17---17-15-13-12-|
G|--------------12--12------------------|
D|--------------------------------------|
A|--------------------------------------|
E|--------------------------------------|

E|--------------------------------------|
B|--12-12-13-15--------17---17-15-13-12-|
G|--------------12--12------------------|
D|--------------------------------------|
A|--------------------------------------|
E|--------------------------------------|

E|--------------------------------|
B|--12-12-13-15-----15---15-15-13-|
G|--------------12----------------|
D|--------------------------------|
A|--------------------------------|
E|--------------------------------|

E|---------------------------------------15---15\-|
B|--12-12-12-15b17r15-13-----------------12---12\-|
G|--------------------------12-12-14-/12----12----|
D|------------------------14----------------------|
A|------------------------------------------------|
E|------------------------------------------------|



Like us on Facebook.....
-> Loading Time :0.0102 sec