Caged and Disgraced Tabs & Lyrics by Six Feet Under

Caged and Disgraced

guitar tabs lyrics

Six Feet Under

Album : Warpath death metal PlayStop


Tabbed by:THE SANDMAN
Email:ryan5@iamwasted.com

Tuning:D G C F A D



|------------------------------------|
|------------------------------------|
|-----9---10\7---9---10---12---10-10-|

|-----9---10\7---9---10---12---10-10-|
|-----7---8-\5---7---8----10---8--8--|
|-0-0---0------0---0----0----0-------|
... . . . . .

|---------------------------------|
|---------------------------------|
|-----9---10\7---9---10---7---7/9-|
|-----9---10\7---9---10---7---7/9-|
|-----7---8-\5---7---8----5---5/7-|
|-0-0---0------0---0----0---0-----|
... . . . . .


|-------------------------------------------|
|-------------------------------------------|
|-9----10-----------------------------------|
|-9----10----5------------------------------|
|-7----8-----5------------------------------|
|-7----8-----3--0-0-0-0-0-0-0-0-0-0-0-0-0-0-|
...........................

x4
|--------------------------------|
|--------------------------------|
|--------------------------------|
|-5-5----------------------------|
|-5-5----------------------------|
|-3-3--0-0-0-0-0-0-0-0-0-0-0-0-0-|
.........................
x3
|---------------------------------|
|---------------------------------|
|---------------------------------|
|-5-5-5-5-------------------------|
|-5-5-5-5-------------------------|
|-3-3-3-3-0-0-0-0-0-0-0-0-0-0-0-0-|
.......................

|---------|
|---------|
|---------|
|-5-5-5-5-|
|-5-5-5-5-|
|-3-3-3-3-|



|---------------|
|---------------|
|-----9---10\7--|
|-----9---10\7--|
|-----7---8-\5--|
|-0-0---0-------|
... .

Like us on Facebook.....
-> Loading Time :0.0087 sec