Buried Alive Tabs & Lyrics by Mercyful Fate

Buried Alive

guitar tabs lyrics

Mercyful Fate

Album : 9 heavy metal PlayStop


Buried Alive


Lt. Twin B
Track 1
Enjoy



PM PM PM PM PM PM

E E E Q Q. E E E Q Q. E E E Q Q.
E||-----------------------|-----------------------|-----------------------|
B||-----------------------|-----------------------|-----------------------|
G||-----------------------|-----------------------|-----------------------|
D||-----------------------|-----------------------|-----------------------|
A||-----7-----8-----------|-----7-----8-----------|-----7-----8-----------|
E||--0-----0--------------|--0-----0--------------|--0-----0--------------|


PM PM
E Q Q Q E E Q Q Q E E E E Q E S S E
-----------------------|-----------------------|---------------------------|
-----------------------|-----------------------|---------------------------|
-----------------------|-----------------------|---------------------------|
-----------------------|-----9----8----5----4--|---------------------------|
-----7----6----3----2--|-----------------------|-----7-----8---------------|
--0--------------------|--0--------------------|--0-----0-------7--7-8-10--|


PM PM PM PM
|3| |3|
E E E Q E S E S E E E E Q E S S E
-----------------------------|---------------------------|
-----------------------------|---------------------------|
-----------------------------|---------------------------|
----------------7--6-7--6----|---------------------------|
-----7-----8--------------8--|-----7-----8---------------|
--0-----0--------------------|--0-----0-------7--7-8-10--|


E Q Q Q E E Q Q Q E W
-----------------------|-----------------------|--------------------|
-----------------------|-----------------------|--------------------|
-----------------------|-----------------------|--4~----------------|
-----------------------|-----9----8----5----4--|--2~----------------|
-----7----6----3----2--|-----------------------|--------------------|
--0--------------------|--0--------------------|--------------------|


PM PM PM PM
|3| |3|
E E E Q E S S E E E E Q E S E S E
---------------------------|-----------------------------|
---------------------------|-----------------------------|
---------------------------|-----------------------------|
---------------------------|----------------7--6-7--6----|
-----7-----8---------------|-----7-----8--------------8--|
--0-----0-------7--7-8-10--|--0-----0--------------------|


PM PM PM PM
E E E Q E S S E E Q Q Q E E E E Q E S S E
---------------------------|-----------------------|---------------------------|
---------------------------|-----------------------|---------------------------|
---------------------------|-----------------------|---------------------------|
---------------------------|-----------------------|---------------------------|
-----7-----8---------------|-----7----6----3----2--|-----7-----8---------------|
--0-----0-------7--7-8-10--|--0--------------------|--0-----0-------7--7-8-10--|


PM PM PM PM
|3| |3|
E E E Q E S E S E E E E Q E S S E
-----------------------------|---------------------------|
-----------------------------|---------------------------|
-----------------------------|---------------------------|
----------------7--6-7--6----|---------------------------|
-----7-----8--------------8--|-----7-----8---------------|
--0-----0--------------------|--0-----0-------7--7-8-10--|


E Q Q Q E E Q Q Q E E Q Q Q E
-----------------------|-----------------------|-----------------------|
-----------------------|-----------------------|-----------------------|
-----------------------|-----------------------|-----------------------|
-----------------------|-----9----8----5----4--|-----------------------|
-----7----6----3----2--|-----------------------|-----7----6----3----2--|
--0--------------------|--0--------------------|--0--------------------|


E Q Q E S S S S E E E E E E E E
--------------------------|------------------------------------|
--------------------------|------------------------------------|
--------------------------|------------------------------------|
-----9----8---------------|------------------------------------|
---------------8--8-8-8-8-|--(4)--4--(4)--(4)--4--(4)--4--(4)--|
--0------------6--6-6-6-6-|--(2)--2--(2)--(2)--2--(2)--2--(2)--|


E E E E H E E E E E E E E
-----------------------------|------------------------------------|
-----------------------------|------------------------------------|
-----------------------------|------------------------------------|
-----------------------------|------------------------------------|
--(5)--5--(5)--(5)--5--------|--(4)--4--(4)--(4)--4--(4)--4--(4)--|
--(3)--3--(3)--(3)--3--------|--(2)--2--(2)--(2)--2--(2)--2--(2)--|


Q. Q. Q Q. Q. Q
---------------------|---------------------|
---------------------|---------------------|
---------------------|---------------------|
--6------------------|---------------------|
--4------6------3----|--5------7------8----|
---------4------1----|--3------5------6----|


E E E E E E E E E E E E H
------------------------------------|-----------------------------|
------------------------------------|-----------------------------|
------------------------------------|-----------------------------|
------------------------------------|-----------------------------|
--(4)--4--(4)--(4)--4--(4)--4--(4)--|--(5)--5--(5)--(5)--5--------|
--(2)--2--(2)--(2)--2--(2)--2--(2)--|--(3)--3--(3)--(3)--3--------|


E E E E E E E E Q. Q. Q
------------------------------------|---------------------|
------------------------------------|---------------------|
------------------------------------|---------------------|
------------------------------------|--6------------------|
--(4)--4--(4)--(4)--4--(4)--4--(4)--|--4------6------3----|
--(2)--2--(2)--(2)--2--(2)--2--(2)--|---------4------1----|


Q. Q. Q H. E E H. E E
---------------------|----------------------|---------------------|
---------------------|----------------------|---------------------|
---------------------|----------------------|---------------------|
---------------------|----------------------|---------------------|
--5------7------8----|--12---------------7--|--8------------8--7--|
--3------5------6----|--10---------------5--|--6------------6--5--|


H. E E W H H
---------------------|-------------------|--------------------|
---------------------|-------------------|--------------------|
---------------------|-------------------|--------------------|
---------------------|-------------------|--------------------|
--5------------5--7--|--8----------------|--8--------7--------|
--3------------3--5--|--6----------------|--6--------5--------|


PM PM PM PM
|3| |3|
E E E Q E S S E E E E Q E S E S E
---------------------------|-----------------------------|
---------------------------|-----------------------------|
---------------------------|-----------------------------|
---------------------------|----------------7--6-7--6----|
-----7-----8---------------|-----7-----8--------------8--|
--0-----0-------7--7-8-10--|--0-----0--------------------|


PM PM
E E E Q E S S E E Q Q Q E E Q Q Q E
---------------------------|-----------------------|-----------------------|
---------------------------|-----------------------|-----------------------|
---------------------------|-----------------------|-----------------------|
---------------------------|-----------------------|-----9----8----5----4--|
-----7-----8---------------|-----7----6----3----2--|-----------------------|
--0-----0-------7--7-8-10--|--0--------------------|--0--------------------|


PM PM PM PM
|3| |3|
E E E Q E S S E E E E Q E S E S E
---------------------------|-----------------------------|
---------------------------|-----------------------------|
---------------------------|-----------------------------|
---------------------------|----------------7--6-7--6----|
-----7-----8---------------|-----7-----8--------------8--|
--0-----0-------7--7-8-10--|--0-----0--------------------|


PM PM
E E E Q E S S E E Q Q Q E E Q Q E S S S S
---------------------------|-----------------------|--------------------------|
---------------------------|-----------------------|--------------------------|
---------------------------|-----------------------|--------------------------|
---------------------------|-----------------------|-----9----8---------------|
-----7-----8---------------|-----7----6----3----2--|---------------8--8-8-8-8-|
--0-----0-------7--7-8-10--|--0--------------------|--0------------6--6-6-6-6-|


E Q Q Q E E E E E E E E E
-----------------------|------------------------------------|
-----------------------|------------------------------------|
-----------------------|------------------------------------|
-----------------------|------------------------------------|
-----7----6----3----2--|--(4)--4--(4)--(4)--4--(4)--4--(4)--|
--0--------------------|--(2)--2--(2)--(2)--2--(2)--2--(2)--|


E E E E H E E E E E E E E
-----------------------------|------------------------------------|
-----------------------------|------------------------------------|
-----------------------------|------------------------------------|
-----------------------------|------------------------------------|
--(5)--5--(5)--(5)--5--------|--(4)--4--(4)--(4)--4--(4)--4--(4)--|
--(3)--3--(3)--(3)--3--------|--(2)--2--(2)--(2)--2--(2)--2--(2)--|


Q. Q. Q Q. Q. Q
---------------------|---------------------|
---------------------|---------------------|
---------------------|---------------------|
--6------------------|---------------------|
--4------6------3----|--5------7------8----|
---------4------1----|--3------5------6----|


E E E E E E E E E E E E H
------------------------------------|-----------------------------|
------------------------------------|-----------------------------|
------------------------------------|-----------------------------|
------------------------------------|-----------------------------|
--(4)--4--(4)--(4)--4--(4)--4--(4)--|--(4)--4--(4)--(4)--4--------|
--(2)--2--(2)--(2)--2--(2)--2--(2)--|--(2)--2--(2)--(2)--2--------|


E E E E E E E E Q. Q. Q
------------------------------------|---------------------|
------------------------------------|---------------------|
------------------------------------|---------------------|
------------------------------------|--6------------------|
--(4)--4--(4)--(4)--4--(4)--4--(4)--|--4------6------3----|
--(2)--2--(2)--(2)--2--(2)--2--(2)--|---------4------1----|


Q. Q. Q H. E E H. E E
---------------------|----------------------|---------------------|
---------------------|----------------------|---------------------|
---------------------|----------------------|---------------------|
---------------------|----------------------|---------------------|
--5------7------8----|--12---------------7--|--8------------8--7--|
--3------5------6----|--10---------------5--|--6------------6--5--|


H. E E W H H
---------------------|-------------------|--------------------|
---------------------|-------------------|--------------------|
---------------------|-------------------|--------------------|
---------------------|-------------------|--------------------|
--5------------5--7--|--8----------------|--8--------7--------|
--3------------3--5--|--6----------------|--6--------5--------|


Q Q E E Q Q Q E E Q Q Q E E Q
-----------------------|-----------------------|-----------------------|
-----------------------|-----------------------|-----------------------|
-----------------------|-----------------------|-----------------------|
-----------------------|---------------4--6----|-----------------------|
--4----4----4--7--7----|--4----4----4--2--4----|--4----4----4--7--7----|
--2----2----2--5--5----|--2----2----2----------|--2----2----2--5--5----|


Q Q E E Q Q. E Q. E Q. E E S S S S S S
-----------------------|----------------------|---------------------------|
-----------------------|----------------------|---------------------------|
-----------------------|----------------------|---------------------------|
---------------4--7----|----------------------|--9------9-----------------|
--4----4----4--2--5----|--4------4--2------2--|--7------7-----------------|
--2----2----2----------|--2------2--0------0--|------------0--0-0-0-0-0-0-|


Q. E Q. E Q. E E S S S S S S Q. E Q. E
----------------------|---------------------------|----------------------|
----------------------|---------------------------|----------------------|
----------------------|---------------------------|----------------------|
----------------------|--9------9-----------------|----------------------|
--4------4--2------2--|--7------7-----------------|--4------4--2------2--|
--2------2--0------0--|------------0--0-0-0-0-0-0-|--2------2--0------0--|


Q. E E S S S S S S Q. E Q. E Q. E E S S S S S S
---------------------------|----------------------|---------------------------||
---------------------------|----------------------|---------------------------||
---------------------------|----------------------|---------------------------||
--9------9-----------------|----------------------|--9------9-----------------||
--7------7-----------------|--4------4--2------2--|--7------7-----------------||
------------0--0-0-0-0-0-0-|--2------2--0------0--|------------0--0-0-0-0-0-0-||




Duration Legend
---------------
W - whole
H - half
Q - quarter
E - 8th
S - 16th
T - 32nd
X - 64th
. - note dotted
|-n-| - n-tuplets


Tablature Legend
----------------
L - tied note
x - dead note
g - grace note
(n) - ghost note
> - accentuded note
NH - natural harmonic
AH - artificial harmonic
TH - tapped harmonic
SH - semi harmonic
PH - pitch harmonic
h - hammer on
p - pull off
b - bend
br - bendRelease
pb - preBend
pbr - preBendRelease
brb - bendReleaseBend
\n/ - tremolo bar dip
\n - tremolo bar dive
-/n - tremolo bar Release up
/n\ - tremolo bar inverted dip
/n - tremolo bar return
-\n - tremolo bar Release down
S - shift slide
s - legato slide
/ - slide into from below or out of upwards
\ - slide into from above or out of downwards
~ - vibrato
W - wide vibrato
tr - trill
TP - tremolo picking
T - tapping
S - slap
P - pop
< - fade in
^ - brush up
v - brush down


Like us on Facebook.....
-> Loading Time :0.0087 sec