Burial for the Living Tabs & Lyrics by Hatebreed

Burial for the Living

guitar tabs lyrics

Hatebreed

Album : Satisfaction Is the Death of Desire hardcore PlayStop


Bass and Guitar intro
1||-----------------|-----------------|-----------------|-----------------||
2||-----------------|-----------------|-----------------|-----------------||
3||-----------------|-----------------|-----------------|-----------------||
4||-----------------|-----------------|-----------------|-3-2---2---------||
5||-3-2-----3-2-----|-1-1---1-1-1---1-|-3-2-----3-2-----|---------1-1-2---||
6||-1-0-----1-0-----|-----------------|-1-0-----1-0-----|-----------------||

"No one can redeem themselves..."
1||-----------------|-----------------|-----------------|------------------||

2||-----------------|-----------------|-----------------|------------------||
3||-----------------|-----------------|-----------------|------------------||
4||-----------------|-3-3---3-3-3---3-|-----------------|-10-9---9---------||
5||-3-2---2-3-2---2-|-1-1---1-1-1---1-|-3-2---2-3-2---2-|--8-7---7-8-8-9---||
6||-1-0---0-1-0---0-|-----------------|-1-0---0-1-0---0-|----------6-6-7---||

"Burial for the living..."
1||-----------------|-----------------|-----------------|------------------||-----||
2||-----------------|-----------------|-----------------|------------------||-----||
3||-----------------|-----------------|-----------------|------------------||-----||
4||-----------------|-----------------|-----------------|------------------||-----||
5||-3-2-------------|-3-2-------------|-5-3-------------|-6-------3--3--3--||-2---||
6||-1-0-------------|-1-0-------------|-3-1-------------|-4-------1--1--1--||-0---||

"Vengence..."
1||-----------------||-----------------|-----------------||-----------------||
2||-----------------||-----------------|-----------------||-----------------||
3||-----------------||-----------------|-----------------||-----------------||
4||-----------------||-----------------|-----------------||-----------------||
5||-3-6-5---2-5-4---||-3---2---2-2-2---|-3---2-----2-2---||---2-2-----2-2---||
6||-1-4-3---0-3-2---||-1---0---0-0-0---|-1---0-----0-0---||---0-0-----0-0---||

Alternate ending
1||-----------------||
2||-----------------||
3||-----------------||
4||-----------------||
5||-3-6-5-----------||
6||-1-4-3---0000003-||

Like us on Facebook.....
-> Loading Time :0.0088 sec