Bring Back the Sun Tabs & Lyrics by Our Lady Peace

Bring Back the Sun

guitar tabs lyrics

Our Lady Peace

Album : Gravity albums i own PlayStop


OUR LADY PEACE - BRING BACK THE SUN
GRAVITY
TABBED BY DONKEY FLY

I FOUND OUT THAT THE OTHER VERSION WAS COPIED FROM A FAN SITE AND IT WASNT QUITE
RIGHT OR SPECIFIC ENOUGH , SO I TABBED IT MY SELF


Intro - LOOK AT BOTTOM FOR A VARIATION OF INTRO AND VERSES
E|----------------------------------------------------------------||

B|----------------------------------------------------------------||
G|--------------------1-------------------------------------------||
D|-------0h4----------2-------0h4----------11---------------------||
A|---0h4------0-4-4-4-2---0h4------0-7-7-9-11---------------------||
E|------------2-2-2-2-0------------2-5-5-7--9---------------------||

Verses - With ALTERNATE Pickings , Improvisation Can be Used

E|-----------------------------------------------------------------||
B|-----------------------------------------------------------------||
G|--------------------1-------------------------8--

Like us on Facebook.....
-> Loading Time :0.0108 sec