Breaking Their Hold Tabs & Lyrics by Avenged Sevenfold

Breaking Their Hold

guitar tabs lyrics

Avenged Sevenfold

Album : Sounding the Seventh Trumpet metalcore PlayStop


BREAKING THEIR HOLD
As recorded by Avenged Sevenfold
(From the 2002 Album SOUNDING THE SEVENTH TRUMPET)



Gtr I (D A D G B E) - 'Zacky V'
Gtr II (D A D G B E) - 'Zacky V'


|- Q=194
|- 4/4
Gtr I
W +W W S S E Q H
||----------|------------|----------|---------------|
||----------|------------|----------|---------------|
||----------|------------|----------|---------------|
||----------|------------|----------|-0-------------|
||-0--------|-(0)--------|-0--------|-0-------------|
||-4--------|-(4)--------|-4--------|-0-------------|


Gtr I
E Q E E Q E E Q E E Q E E Q E E Q E E Q E E Q E
|-------------------|-------------------|-------------------|-------------------|
|-------------------|-------------------|-------------------|-------------------|
|-12-12-12-14-14-14-|-15-15-15-15-15-15-|-11-11-11-11-11-11-|-11-11-11-11-11-11-|
|-------------------|-------------------|-------------------|-------------------|
|-10-10-10-12-12-12-|-13-13-13-13-13-13-|--9--9--9--9--9--9-|--9--9--9--9--9--9-|
|-------------------|-------------------|-------------------|-------------------|
| |
| Gtr II |
| E Q E E Q E E Q E E Q E E Q E E Q E E Q E E Q E |
|-------------------|-------------------|-------------------|-------------------|
|-------------------|-------------------|-------------------|-------------------|
|--7--7--7----------|-------------------|-------------------|-------------------|
|--7--7--7--3--3--3-|--1--1--1--1--1--1-|-------------------|-------------------|
|--5--5--5--3--3--3-|--1--1--1--1--1--1-|--4--4--4--4--4--4-|--4--4--4--4--4--4-|
|-----------3--3--3-|--1--1--1--1--1--1-|--4--4--4--4--4--4-|--4--4--4--4--4--4-|



E Q E E Q E E Q E E Q E E Q E E Q E E Q E E Q E
|-------------------|-------------------|-------------------|-------------------|
|-------------------|-------------------|-------------------|-------------------|
|-12-12-12-14-14-14-|-15-15-15-15-15-15-|-11-11-11-11-11-11-|-11-11-11-11-11-11-|
|-------------------|-------------------|-------------------|-------------------|
|-10-10-10-12-12-12-|-13-13-13-13-13-13-|--9--9--9--9--9--9-|--9--9--9--9--9--9-|
|-------------------|-------------------|-------------------|-------------------|
| |
| |
| E Q E E Q E E Q E E Q E E Q E E Q E E Q E E Q E |
|-------------------|-------------------|-------------------|-------------------|
|-------------------|-------------------|-------------------|-------------------|
|--7--7--7----------|-------------------|-------------------|-------------------|
|--7--7--7--3--3--3-|--1--1--1--1--1--1-|-------------------|-------------------|
|--5--5--5--3--3--3-|--1--1--1--1--1--1-|--4--4--4--4--4--4-|--4--4--4--4--4--4-|
|-----------3--3--3-|--1--1--1--1--1--1-|--4--4--4--4--4--4-|--4--4--4--4--4--4-|



E Q E E Q E E Q E E Q E E Q E E Q E E Q E E Q E
|-------------------|-------------------|-------------------|-------------------|
|-------------------|-------------------|-------------------|-------------------|
|-12-12-12-14-14-14-|-15-15-15-15-15-15-|-11-11-11-11-11-11-|-11-11-11-11-11-11-|
|-------------------|-------------------|-------------------|-------------------|
|-10-10-10-12-12-12-|-13-13-13-13-13-13-|--9--9--9--9--9--9-|--9--9--9--9--9--9-|
|-------------------|-------------------|-------------------|-------------------|
| |
| |
| E Q E E Q E E Q E E Q E E Q E E Q E E Q E E Q E |
|-------------------|-------------------|-------------------|-------------------|
|-------------------|-------------------|-------------------|-------------------|
|--7--7--7----------|-------------------|-------------------|-------------------|
|--7--7--7--3--3--3-|--1--1--1--1--1--1-|-------------------|-------------------|
|--5--5--5--3--3--3-|--1--1--1--1--1--1-|--4--4--4--4--4--4-|--4--4--4--4--4--4-|
|-----------3--3--3-|--1--1--1--1--1--1-|--4--4--4--4--4--4-|--4--4--4--4--4--4-|



E Q E E Q E E Q E E Q E E Q E E Q E E Q E E Q E
|-------------------|-------------------|-------------------|-------------------|
|-------------------|-------------------|-------------------|-------------------|
|-12-12-12-14-14-14-|-15-15-15-15-15-15-|-11-11-11-11-11-11-|-11-11-11-11-11-11-|
|-------------------|-------------------|-------------------|-------------------|
|-10-10-10-12-12-12-|-13-13-13-13-13-13-|--9--9--9--9--9--9-|--9--9--9--9--9--9-|
|-------------------|-------------------|-------------------|-------------------|
| |
| |
| E Q E E Q E E Q E E Q E E Q E E Q E E Q E E Q E |
|-------------------|-------------------|-------------------|-------------------|
|-------------------|-------------------|-------------------|-------------------|
|--7--7--7----------|-------------------|-------------------|-------------------|
|--7--7--7--3--3--3-|--1--1--1--1--1--1-|-------------------|-------------------|
|--5--5--5--3--3--3-|--1--1--1--1--1--1-|--4--4--4--4--4--4-|--4--4--4--4--4--4-|
|-----------3--3--3-|--1--1--1--1--1--1-|--4--4--4--4--4--4-|--4--4--4--4--4--4-|



E E E E E E E E E E E E E E E E E E E E E E E E Q Q Q Q
|-----------------|-----------------|-----------------|---------|
|-----------------|-----------------|-----------------|---------|
|-----------------|-----------------|-----------------|---------|
|-----------------|-------------2-1-|-----------------|---------|
|---3-2---2-1---1-|---3-2---2-1-----|---3-2---2-1---1-|-----3-2-|
|-3-----3-----3---|-3-----3---------|-3-----3-----3---|-3-2-----|
| |
| |
| E E Q H E E Q H E E Q H Q Q Q Q |
|-----------------|-----------------|-----------------|---------|
|-----------------|-----------------|-----------------|---------|
|-----------------|-----------------|-----------------|---------|
|-----------------|-----------------|-----------------|---------|
|-3---------------|-3---------------|-3---------------|-----3-2-|
|-3---------------|-3---------------|-3---------------|-3-2-----|



E E E E E E E E E E E E E E E E E E E E E E E E Q Q Q Q
|-----------------|-----------------|-----------------|---------|
|-----------------|-----------------|-----------------|---------|
|-----------------|-----------------|-----------------|---------|
|-----------------|-------------2-1-|-----------------|---------|
|---3-2---2-1---1-|---3-2---2-1-----|---3-2---2-1---1-|-----3-2-|
|-3-----3-----3---|-3-----3---------|-3-----3-----3---|-3-2-----|
| |
| |
| E E Q H E E Q H E E Q H Q Q Q Q |
|-----------------|-----------------|-----------------|---------|
|-----------------|-----------------|-----------------|---------|
|-----------------|-----------------|-----------------|---------|
|-----------------|-----------------|-----------------|---------|
|-3---------------|-3---------------|-3---------------|-----3-2-|
|-3---------------|-3---------------|-3---------------|-3-2-----|


Gtrs I, II
Q Q Q Q +W E E Q H
|---------|-----|---------|
|---------|-----|---------|
|-----3-2-|-(2)-|-2-------|
|-3-2-----|-----|---------|
|---------|-----|---------|
|---------|-----|---------|



E E E E E E E E E E E E E E E E E E E E E E E E Q Q Q Q
|-----------------|-----------------|-----------------|---------|
|-----------------|-----------------|-----------------|---------|
|-----------------|-----------------|-----------------|---------|
|-----------------|-------------2-1-|-----------------|---------|
|---3-2---2-1---1-|---3-2---2-1-----|---3-2---2-1---1-|-----3-2-|
|-3-----3-----3---|-3-----3---------|-3-----3-----3---|-3-2-----|



E E E E E E E E E E E E E E E E E E E E E E E E Q Q Q Q
|-----------------|-----------------|-----------------|---------|
|-----------------|-----------------|-----------------|---------|
|-----------------|-----------------|-----------------|---------|
|-----------------|-------------2-1-|-----------------|---------|
|---3-2---2-1---1-|---3-2---2-1-----|---3-2---2-1---1-|-----3-2-|
|-3-----3-----3---|-3-----3---------|-3-----3-----3---|-3-2-----|



E E E E E E E E E E E E E E E E E E E E E E E E Q Q Q Q
|-----------------|-----------------|-----------------|---------|
|-----------------|-----------------|-----------------|---------|
|-----------------|-----------------|-----------------|---------|
|-----------------|-------------2-1-|-----------------|---------|
|---3-2---2-1---1-|---3-2---2-1-----|---3-2---2-1---1-|-----3-2-|
|-3-----3-----3---|-3-----3---------|-3-----3-----3---|-3-2-----|



E E E E E E E E E E E E E E E E E E E E E E E E Q Q Q Q
|-----------------|-----------------|-----------------|---------|
|-----------------|-----------------|-----------------|---------|
|-----------------|-----------------|-----------------|---------|
|-----------------|-------------2-1-|-----------------|---------|
|---3-2---2-1---1-|---3-2---2-1-----|---3-2---2-1---1-|-----3-2-|
|-3-----3-----3---|-3-----3---------|-3-----3-----3---|-3-2-----|



Q Q Q Q Q Q Q Q Q Q Q Q Q Q Q Q Q Q Q Q Q Q Q Q
|---------|---------|---------|---------|---------|---------*||
|---------|---------|---------|---------|---------|---------*||
|---------|-----3-2-|---------|-----3-2-|---------|-----3-2-*||
|---------|-3-2-----|---------|-3-2-----|---------|-3-2-----*||
|-----3-2-|---------|-----3-2-|---------|-----3-2-|---------*||
|-3-2-----|---------|-3-2-----|---------|-3-2-----|---------*||

Like us on Facebook.....
-> Loading Time :0.0179 sec