Bottle Rocket Tabs & Lyrics by Heatmiser

Bottle Rocket

guitar tabs lyrics

Heatmiser

Album : Dead Air alternative rock PlayStop


song : bottle rocket
artist : heatmiser
tabbed by : oneshotnothing

tuned one step down


INTRO/VERSE - Repeat as necessary

e-|--------------------------------|--------------------------------|

b-|--------------------------------|--------9-----------9-------8---|
g-|--------------------------------|--------------------------------|
d-|----------------5---7---7---9---|--------9-----------9-------9---|
a-|----------------5---7---5---7---|--------------------------------|
E-|----------------3---5-----------|--------------------------------|
^ ' ^ ' ^ ' ^ ' ^ ' ^ ' ^ ' ^ ' |
1 2 3 4 1 2 3 4


PRECHORUS - Repeat as necessary

e-|--------------------------------|--------------------------------|
b-|--------------------------------|--------------------------------|
g-|----------------6---6-------4---|----------------2---2-------1---|
d-|----------------7---7-------5---|----------------3---3-------2---|
a-|----------------7---7-------5---|----------------3---3-------2---|
E-|----------------5---5-------3---|----------------1---1-------0---|
^ ' ^ ' ^ ' ^ ' ^ ' ^ ' ^ ' ^ ' |
1 2 3 4 1 2 3 4


one measure of 2/4 before bridge

e-|----------------|
b-|----------------|
g-|----------------|
d-|----------------|
a-|----------------|
E-|----------------|
^ ' ^ ' |
1 2

BRIDGE

e-|--------------------------------|--------------------------------|
b-|--------------------------------|--------------------------------|
g-|6---6---6---6---6---6---6---9---|9---9---9---9---9---9---9---11--|
d-|7---7---7---7---7---7---7---10--|10--10--10--10--10--10--10--12--|
a-|7---7---7---7---7---7---7---10--|10--10--10--10--10--10--10--12--|
E-|5---5---5---5---5---5---5---8---|8---8---8---8---8---8---8---10--|
^ ' ^ ' ^ ' ^ ' ^ ' ^ ' ^ ' ^ ' |
1 2 3 4 1 2 3 4

e-|--------------------------------|--------------------------------|
b-|--------------------------------|--------------------------------|
g-|11--11--11--11--11--11--12--1---|1---1---1---1---4---4---4---4---|
d-|12--12--12--12--12--12--12--2---|2---2---2---2---5---5---5---5---|
a-|12--12--12--12--12--12--12--2---|2---2---2---2---5---5---5---5---|
E-|10--10--10--10--10--10--10--0---|0---0---0---0---3---3---3---3---|
^ ' ^ ' ^ ' ^ ' ^ ' ^ ' ^ ' ^ ' |
1 2 3 4 1 2 3 4

e-|--------------------------------|--------------------------------|
b-|--------------------------------|--------------------------------|
g-|6---6---6---6---6---6---6---9---|9---9---9---9---9---9---9---11--|
d-|7---7---7---7---7---7---7---10--|10--10--10--10--10--10--10--12--|
a-|7---7---7---7---7---7---7---10--|10--10--10--10--10--10--10--12--|
E-|5---5---5---5---5---5---5---8---|8---8---8---8---8---8---8---10--|
^ ' ^ ' ^ ' ^ ' ^ ' ^ ' ^ ' ^ ' |
1 2 3 4 1 2 3 4

e-|--------------------------------|--------------------------------|
b-|--------------------------------|--------------------------------|
g-|11--11--11--11--11--11--12--1---|--------------------------------|
d-|12--12--12--12--12--12--12--2---|--------------------------------|
a-|12--12--12--12--12--12--12--2---|--------------------------------|
E-|10--10--10--10--10--10--10--0---|--------------------------------|
^ ' ^ ' ^ ' ^ ' ^ ' ^ ' ^ ' ^ ' |
1 2 3 4 1 2 3 4


CHORUS/END - 4x

e-|--------------------------------|--------------------------------|
b-|--------------------------------|--------------------------------|
g-|--------------------------------|----------------3---3-------4---|
d-|----------------5---7---7---9---|--------9-------4---4-------5---|
a-|----------------5---7---5---7---|--------7-------4---4-------5---|
E-|----------------3---5-------0---|--------0-------2---2-------3---|
^ ' ^ ' ^ ' ^ ' ^ ' ^ ' ^ ' ^ ' |
1 2 3 4 1 2 3 4


wow, ultimate guitar doesn't think heatmiser is a band, and wants a link to their
website to prove they're real. that's sad.

http://www.myspace.com/heatmiserband

Like us on Facebook.....
-> Loading Time :0.0117 sec