Borrowed Your Gun Tabs & Lyrics by Spiritualized

Borrowed Your Gun

guitar tabs lyrics

Spiritualized

Album : Songs In A&E best of 2008 PlayStop


----------------------------------------------------------------------------
Borrowed Your Gun - Spiritualized
----------------------------------------------------------------------------
Tabbed by: InSanAndreas
Email: leeaustin1990@hotmail.com

Tuning:Standard

Verse
e|-0---------------0------------0------------------0-----------------------|

B|-0---------------2------------0------------------2-----------------------|
G|-1---------------2------------1------------------2-----------------------|
D|-2---------------4------------2------------------4-----------------------|
A|-2----------------------------2------------------------------------------|
E|-0----------------------------0------------------------------------------|
[E] Daddy I'm [F#m7] sorry I [E] borrowed your [F#m7] gun again

e|-0-------------------0-----------0------------------0--------------------|
B|-2-------------------0-----------2------------------0--------------------|
G|-2-------------------1-----------2------------------1--------------------|
D|-4-------------------2-----------4------------------2--------------------|
A|---------------------2------------------------------2--------------------|
E|---------------------0------------------------------0--------------------|
[F#m7] shot up your [E] family [F#m7] shot for the [E] city.

This repeats the same timing as the first just continue the lyrics
(they are only there to help you get an idea of timing)

Chorus
e|-0-----------------0-2---------------0-----------------------------------|
B|-2-----------------2-2---------------0-----------------------------------|
G|-2-----------------2-3---------------1-----------------------------------|
D|-2-----------------2-4---------------2-----------------------------------|
A|-0-----------------0-----------------2-----------------------------------|
E|-0-----------------0-----------------0-----------------------------------|
[A] hold out your [A/F#] hands, I'm [E]coming home

e|-0-----------------0-2--------------0------------------------------------|
B|-2-----------------2-2--------------0------------------------------------|
G|-2-----------------2-3--------------1------------------------------------|
D|-2-----------------2-4--------------2------------------------------------|
A|-0-----------------0----------------2------------------------------------|
E|-0-----------------0----------------0------------------------------------|
[A] hold out your [A/F#] arms, I'm [E]all alone

e|----0----------------0-------------0--------------4----------------------|
B|----2----------------2-------------0--------------0----------------------|
G|----2----------------2-------------1--------------4----------------------|
D|----2----------------4-------------2--------------2----------------------|
A|----0------------------------------2--------------4----------------------|
E|----0------------------------------0-------------------------------------|
my [A]mind is made [F#m7] up, I'm [E]down on my [C#m7] luck;

e|-0---------------0--------------0----------------------------------------|
B|-2---------------2--------------0----------------------------------------|
G|-2---------------2--------------1----------------------------------------|
D|-2---------------4--------------2----------------------------------------|
A|-0---------------0--------------2----------------------------------------|
E|-0---------------0--------------0----------------------------------------|
[A] run out of [F#m7] bullets a[E]gain.

Listen to the song if you don't get the timing from this, its pretty obvious.

Enjoy :)
============================================================================

Like us on Facebook.....
-> Loading Time :0.0114 sec