Boom Boom Tabs & Lyrics by Big Head Todd And The Monsters

Boom Boom

guitar tabs lyrics

Big Head Todd And The Monsters

Album : Beautiful World colorado alternative rock PlayStop


Intro: We’ll do it again Orville

------------------------|------------------------|------------------------|
------------------------|------------------------|------------------------|
------------------------|------------------------|------------------------|
-0h2-2-2-2-2------------|-0h2-2-2-2-2------------|-0h2-2-2-2-2------------|
-------------0h2-0------|-------------0h2-0------|-------------0h2-0------|
-------------------h3-0-|-------------------h3-0-|-------------------h3-0-|



------------------------|------------------------|------------------------|
------------------------|------------------------|------------------------|
------------------------|------------------------|------------------------|
-0h2-2-2-2-2------------|-0h2-2-2-2-2------------|-0h2-2-2-2-2------------|
-------------0h2-0------|-------------0h2-0------|-------------0h2-0------|
-------------------h3-0-|-------------------h3-0-|-------------------h3-0-|
Layin’ down one night Lil Poppa tell Momma What Poppa tell her?


------------------------|------------------------|------------------------|
------------------------|------------------------|------------------------|
------------------------|------------------------|------------------------|
-0h2-2-2-2-2------------|-0h2-2-2-2-2------------|-0h2-2-2-2-2------------|
-------------0h2-0------|-------------0h2-0------|-------------0h2-0------|
-------------------h3-0-|-------------------h3-0-|-------------------h3-0-|
Lil Boy Blue Hey hey hey


------------------------|----------------------0-|------------------------|
------------------------|----------------------0-|------------------------|
------------------------|----------------------2-|------------------------|
-0h2-2-2-2-2------------|-0h2-2-2-2-2----------3-|------------------------|
-------------0h2-0------|-------------0h2-0----3-|------------------------|
-------------------h3-0-|-------------------h3-0-|------------------------|
Hey hey Ya getting’ any? And ya gotta come on


------------------------|------------------------|------------------------|
------------------------|------------------------|------------------------|
------------------------|------------------------|------------------------|
-0h2-2-2-2-2------------|-0h2-2-2-2-2------------|-0h2-2-2-2-2------------|
-------------0h2-0------|-------------0h2-0------|-------------0h2-0------|
-------------------h3-0-|-------------------h3-0-|-------------------h3-0-|
I felt so good While I’m movin’ it the same Boom boom boom boom


------------------------|------------------------|-----------------|
------------------------|------------------------|-5-5-0h3-0-------|
------------------------|------------------------|-----------0-----|
-0h2-2-2-2-2------------|-0h2-2-2-2-2------------|-------------0h2-|
-------------0h2-0------|-------------0h2-0------|-----------------|
-------------------h3-0-|-------------------h3-0-|-----------------|
Gonna shoot ya right down Right off your feet



Em/D h E Em/D h A A Em/D h E (Palm mute) (repeat 4x)
Boom boom boom boom

Em/D h E Em/D h A A Em/D h E (Palm mute)
Bang bang bang bang

Em/D h E Em/D h A A Em/D h E (Palm mute)
Boom boom boom boom

Em/D h E Em/D h A A Em/D h E (Palm mute)
Bang bang bang bang

Em/D h E Em/D h A A Em/D h E (Palm mute)
I love the way you walk

Em/D h E Em/D h A A Em/D h E (Palm mute)
And I love the way you talk

Em/D h E Em/D h A A Em/D h E (Palm mute)
When you walk that walk

Em/D h E Em/D h A A Em/D h E (Palm mute)
And you talk that talk

Em/D h E Em/D h A A Em/D h E (Palm mute)
You knocks me out

Em/D h E Em/D h A A Em/D h E (Palm mute)
Out off of my feet

Em/D h E Em/D h A A Em/D h E (Palm mute)
Boom boom boom boom

Em/D h E Em/D h A A Em/D h E (Palm mute)
Bang bang bang bang

Em/D h E Em/D h A A Em/D h E (Palm mute)
Boom boom boom boom

Em/D h E Em/D h A A Em/D h E (Palm mute)
Bang bang bang bang

Em/D h E Em/D h A A Em/D h E (Palm mute)
How how how how

Em/D h E Em/D h A A Em/D h E (Palm mute)
How how how how

Em/D h E Em/D h A A Em/D h E (Palm mute)
Hey yeah!!



Instrumental:

E A4 E A4 E A4 E A4

B D B D

E A4 E A4

B D A C E A4 E A4

E A4 E A4 E A4 E A4

B D B D

E A4 E A4

B D A C E A4 E (Palm mute)



Em/D h E Em/D h A A Em/D h E (Palm mute)
Boom boom boom boom

Em/D h E Em/D h A A Em/D h E (Palm mute)
Bang bang bang bang

Em/D h E Em/D h A A Em/D h E (Palm mute)
Boom boom boom boom

Em/D h E Em/D h A A Em/D h E (Palm mute)
Bang bang bang bang

Em/D h E Em/D h A A Em/D h E (Palm mute)
I love the way you walk

Em/D h E Em/D h A A Em/D h E (Palm mute)
And I love the way you talk

Em/D h E Em/D h A A Em/D h E (Palm mute)
When you walk that walk

Em/D h E Em/D h A A Em/D h E (Palm mute)
And you talk that talk

Em/D h E Em/D h A A Em/D h E (Palm mute)
You knocks me out

Em/D h E Em/D h A A Em/D h E (Palm mute)
Out off of my feet

Em/D h E Em/D h A A Em/D h E (Palm mute)
Boom boom boom boom

Em/D h E Em/D h A A Em/D h E (Palm mute)
Bang bang bang bang

Em/D h E Em/D h A A Em/D h E (Palm mute)
Boom boom boom boom

Em/D h E Em/D h A A Em/D h E (Palm mute)
I’m gonna shout ya right down

Em/D h E Em/D h A A Em/D h E (Palm mute)
Right off ya feet

Em/D h E Em/D h A A Em/D h E (Palm mute)
How how how how




Instrumental:

E A4 E A4 E A4 E A4

B D B D

E A4 E A4

B D A C E A4 E A4

E A4 E A4 E A4 E A4

B D B D

E A4 E A4

B D A C E A4 E (Palm mute)

Like us on Facebook.....
-> Loading Time :0.0098 sec