Bloodwork Tabs & Lyrics by Living Sacrifice

Bloodwork

guitar tabs lyrics

Living Sacrifice

Album : The Hammering Process metalcore PlayStop


-------------------------------------------------------------------------------
Bloodwork - Living Sacrifice
-------------------------------------------------------------------------------
Tabbed by: Tex777
Email: [email protected]

This tab is relatively easy, the hardest part is keeping the rhythm, which is faily
at the beginning.

Tuning: Drop B with minor 2nd on top 2 strings ( B F# B E Ab B )


Part A (x8)

B |---------------------------------------------------------------------------|
Ab|---------------------------------------------------------------------------|
E |---------------------------------------------------------------------------|
B |-5-5-5--5--5--5------5-5-5-5-----5-5-5--5-5-5------------------------------|
F#|-4-4-4--4--4--4------4-4-4-4-----4-4-4--4-4-4------------------------------|
B |-5-5-5--5--5--5------5-5-5-5-----5-5-5--5-5-5------------------------------|

Part B (x4)

B |---------------------------------------------------------------------------|
Ab|---------------------------------------------------------------------------|
E |---------------------------------------------------------------------------|
B |---------------------------------------------------------------------------|
F#|---------------------------------------------------------------------------|
B |-0-0-0--0--0--0-----0-0-0-0-----0-0-0--0--0--------------------------------|

Part C (x4)

B |-----------------------------------------------------------------------------|
Ab|-----------------------------------------------------------------------------|
E |-----------------------------------------------------------------------------|
B |-0-0-0--0--0--0-----0-0-0-0-----0-0-0--0--0----------------------------------|
F#|-0-0-0--0--0--0-----0-0-0-0-----0-0-0--0--0----------------------------------|
B |-0-0-0--0--0--0-----0-0-0-0-----0-0-0--0--0----------------------------------|
p.m.------------------------------------------------------------------------|

Part B (x4)

Part D (x2)

B |-20-21-20-20---20-21---20-21-20--------------------------------------------|
Ab|-20-21-20-20---20-21---20-21-20--------------------------------------------|
E |--------------------------------0------------------------------------------|
B |-------------0-------0----------0------------------------------------------|
F#|-------------0-------0----------0------------------------------------------|
B |-------------0-------0----------0------------------------------------------|

Part E (x2)

B |---------------------------------------------------------------------------|
Ab|---------------------------------------------------------------------------|
E |---------------------------------------------------------------------------|
B |-----------------1------------1-------------1------------------------------|
F#|-----------------1------------1-------------1------------------------------|
B |--0-0-0--0--0--0-1---0-0-0-0--1---0-0-0--0--1------------------------------|

Part F (x4)

B |-----------------------------------------------------------------------------|
Ab|-----------------------------------------------------------------------------|
E |-----------------------------------------------------------------------------|
B |--0-0-0-0--0--0--1---0-0-0-0--1---0-0-0-0--0--1------------------------------|
F#|--0-0-0-0--0--0--1---0-0-0-0--1---0-0-0-0--0--1------------------------------|
B |--0-0-0-0--0--0--1---0-0-0-0--1---0-0-0-0--0--1------------------------------|
p.m.--------| p.m.--| p.m.---------------------------------------|

Part G (x3)

B |---------------------------------------------------------------------------|
Ab|---------------------------------------------------------------------------|
E |---------------------------------------------------------------------------|
B |---------------------------------------------------------------------------|
F#|---------------------------------------------------------------------------|
B |-0-0-0--0--0------0-0-0--0--0------0-0-0--0--0------0-0-0--0--0------------|

Part F (x1)

B |-----------------------------------------------------------------5---------|
Ab|-----------------------------------------------------------------5---------|
E |---------------------------------------------------------------------------|
B |---------------------------------------------------------------------------|
F#|---------------------------------------------------------------------------|
B |-0-0-0--0--0------0-0-0--0--0------0-0-0--0--0------0--0--0----------------|

Part G (x7, second part on the 8th time) - Repeat this section twice

B |----------5-----|-----------20---------------------------------------------|
Ab|----------5-----|-----------20---------------------------------------------|
E |----------------|----------------------------------------------------------|
B |----------------|----------------------------------------------------------|
F#|----------------|----------------------------------------------------------|
B |-0--0--0--------|---0--0--0------------------------------------------------|

Part H (x4 each part) - Repeate this section four times

B |-------------|-------------------------------------------------------------|
Ab|-------------|-------------------------------------------------------------|
E |-------------|-------------------------------------------------------------|
B |-------------|-------------------------------------------------------------|
F#|-------------|---------6-6-------------------------------------------------|
B |-8--8--8-8-8-|-0--0--0-----------------------------------------------------|

Part I (x8)

B |---------------------------------------------------------------------------|
Ab|---------------------------------------------------------------------------|
E |---------------------------------------------------------------------------|
B |-0--0--0--1----------------------------------------------------------------|
F#|-0--0--0--1----------------------------------------------------------------|
B |-0--0--0--1----------------------------------------------------------------|

Part J (x16 each)

B |----------|----------------------------------------------------------------|
Ab|----------|----------------------------------------------------------------|
E |----------|----------------------------------------------------------------|
B |-0--0--0--|--0--0--0-------------------------------------------------------|
F#|-0--0--0--|--0--0--0-------------------------------------------------------|
B |-0--0--0--|--0--0--0-------------------------------------------------------|
p.m.--|

Repeat Part F, fades out


If you liked my tab or would like to suggest other please feel free to send me an email:
[email protected]

| / slide up
| \ slide down
| h hammer-on
| p pull-off
| ~ vibrato
| + harmonic
| x Mute note
| p.m. palm mute
===============================================================================

Like us on Facebook.....
-> Loading Time :0.0180 sec