Blood Spattered Banner Tabs & Lyrics by Carcass

Blood Spattered Banner

guitar tabs lyrics

Carcass

Album : Wake Up and Smell the… CarcassPlayStop


Again i dont take any credit for this im just sharing tabs i found.


CARCASS BLOOD SPATTERED BANNER
From the Album WAKE UP AND SMELL THE CARCASS
Copyright 1996 EARACHE PEACEVILLE RECORDS

Version 1.1 - JULY 1998

. - palm mute / - slide up to

\ - slide down to ~ - vibrato
h - hammer on b - bend
p - pull off Suffixes for bend
ph - pinch harmonic f - full bend h - half bend
* - see comment r - release t - tap bend
X - percussion mute ~ - vibrato bend
@ - slight palm mute () - ghost note, sustained note
" - tremolo pick until next note

Tune Down 2.5 steps to B

RIFF 1 PLAY 2 TIMES
|----------------------------------------------------------|
|----------------------------------------------------------|GTR
|----------------------------------------------------------| 1
|--------------5----------------------------5----------7---|
|-2----2H4-4H5--5---4--5--7----2----2H4-4H5--5---4--5--5---|
|-0-----------------2--3--5----0-----------------2--3------|
| |
| |
|----------------------------------------------------------|
|----------------------------------------------------------|GTR
|----------------------------------------------------------| 2
|----------------------------------------------------------|OUT
|----------------------------------------------------------|
|----------------------------------------------------------|

RIFF 1.A 2 TIMES
|----------------------------------------------------------|
|----------------------------------------------------------|GTR
|----------------------------------------------------------| 1
|--------------5----------------------------5----------7---|
|-2----2H4-4H5--5---4--5--7----2----2H4-4H5--5---4--5--5---|
|-0-----------------2--3--5----0-----------------2--3------|
| |
| |
|----------------------------------------------------------|
|----------------------------------------------------------|GTR
|----------------------------------------------------------| 2
|--------------5-----------------------------5---------7---|
|-2----2/4-4H5--5---4--5--7----2-----2/4-4H5--5--4--5--5---|
|-0-----------------2--3--5----0-----------------2--3------|

RIFF 3
|---------------------------------------------------------------------------|
|---------------------------------------------------------------------------|GTRS
|---------------------------------------------------------------------------|1&2
|---------------------------------------------------------------------------|
|-2H4-5P4------2---2---2H4-5P4------5--7---2H4-5P4------2---2---2H4-5P4-----|
|---------5P3--0---0-----------5P3--3--5-----------5P3--0---0-----------5P3-|

|--------------------------------------------------------|
|--------------------------------------------------------|
|--------------------------------------------------------|
|--------------------------------------------------------|
|-5--5---2H4-5P4------2---2---2H4-5P4------5--7----------|
|-3--2-----------5P3--0---0-----------5P3--3--5----/15\--|

RIFF 4
|-------------------------|
|-----3-------------------|GTRS
|--------0----------------|1&2
|-------------------------|
|----------------5~----2--|
|-3----------/7-----3--0--|

PLAY RIFF 3 1 TIME
|---------------------------------------------------------------------------|
|---------------------------------------------------------------------------|GTRS
|---------------------------------------------------------------------------|1&2
|---------------------------------------------------------------------------|
|-2H4-5P4------2---2---2H4-5P4------5--7---2H4-5P4------2---2---2H4-5P4-----|
|---------5P3--0---0-----------5P3--3--5-----------5P3--0---0-----------5P3-|

|-------------------------------------------------|
|-------------------------------------------------|
|-------------------------------------------------|
|----4--2--7--------------------------------------|
|-5--2--0--5--2---2---2H4-5P4------5--7-----------|
|-3-----------0---0-----------5P3--3--5-----/15\--|

RIFF 4
|---------------------------------------------------------------------------|
|----3----------------------------------------3-----------------------------|GTRS
|------0----------------------------------------0---------------------------|1&2
|----------------------2H3----------------------------------------2H3-------|
|-------------5-----2------2~--3~--4---7----------------5-----2-------2--3~-|
|-3-------/7-----3--0--------------2---5---3--------/7-----3--0-------------|

|--------------------------------------------------------------------|
|--------------------------------------------------------------------|
|--------------------------------------------------------------------|
|----------2H3-----------------2H3-----------------2H3---------------|
|-4--5--2------2--3~--4--5--2------2--3~--4--5--2------2--3~--4-4/5--|
|-2--3--0-------------2--3--0-------------2--3--0-------------2-2/3--|

RIFF 3.A
|---------------------------------------------------------------------------|
|---------------------------------------------------------------------------|GTRS
|---------------------------------------------------------------------------|1&2
|---------------------------------------------------------------------------|
|-2-2--2H4-5P4------2---2---2H4-5P4------5--7---2H4-5P4------2---2--2H4-5P4-|
|-0-0----------5P3--0---0-----------5P3--3--5-----------5P3--0---0----------|

|-------------------------------------------------------------|
|-------------------------------------------------------------|
|-------------------------------------------------------------|
|-------------------------------------------------------------|
|------5--5---2H4-5P4------2---2---2H4-5P4------5--7----------|
|-5P3--3--2-----------5P3--0---0-----------5P3--3--5----/15\--|

PLAY RIFF 4 1 TIME
PLAY RIFF 1.A 2 TIMES
PLAY RIFF 3 1 TIME
PLAY RIFF 4 1 TIME

RIFF 5 W/FILL 1 PLAY 3 TIMES
|-------------------|
|-------------------|GTRS
|-------------------|1&2
|----2H3-4-5--------|
|-2------2-3--4--5--|
|-0-----------2--3--|

RIFF 6 UNDER SOLO PLAY 2 TIMES
|------------------------------|
|------------------------------|GTR
|------------------------------| 2
|--------------------------7---|
|-2---4--5--7----2---4--5--5---|
|-0---2--3--5----0---2--3------|

RIFF 5.A W/FILL 1 PLAY 3 TIMES
|-------------------|
|-------------------|
|-------------------|
|----2H3------------|
|-2------2-3~-4--5--|
|-0-----------2--3--|

PLAY RIFF 6 2 TIMES UNDER 2ND SOLO
PLAY RIFF 5.A W/FILL 1 PLAY 3 TIMES
PLAY RIFF 5 W/FILL 1 PLAY 3 TIMES
PLAY RIFF 1.A 4 TIMES W/FILL 2

FILL 1
|--------------------|
|--------------------|
|--------------------|
|----2H3-------------|
|-2------2-3~-4-4/5--|
|-0-----------2-2/3--|

FILL 2
|--------------------|
|--------------------|
|--------------------|
|--------------------|
|-2H4-5P4------2--2--|
|---------5P3--0--0--|




Like us on Facebook.....
-> Loading Time :0.0197 sec