Blinded In Chains Tabs & Lyrics by Avenged Sevenfold

Blinded In Chains

guitar tabs lyrics

Avenged Sevenfold

Album : City of Evil metal PlayStop


Can We please rock the fuck out?


BLINDED IN CHAINS
As recorded by Avenged Sevenfold
(From the 2005 Album CITY OF EVIL)

Gtr I (D A D G B E) - 'Pan Right'
Gtr II (D A D G B E) - 'Pan Left'
Gtr III (D A D G B E) - 'Overdub'

Gtr IV (D A D G B E) - 'Overdub II'

Intro
Moderate Rock Q=185
D5
2/2
Gtrs I, II
PM----------| PM------------| PM----|
|----6----| |-3-| |-3-| |-3-|
E E E E E E E E E E E E E E E E E E E E E
||------------------------|---------------------|
||o-----------------------|---------------------|
||------------------------|---------------------|
||------------------------|---------------------|
||o-0-0-0-0-0-0-0---0-0-0-|-0-0-0-0---0-0-0-0---|
||--0-0-0-0-0-0-0---0-0-0-|-0-0-0-0---0-0-0-0---|


PM----------| PM------------| PM----|
|----6----| |-3-| |-3-| |-3-|
E E E E E E E E E E E E E E E E E E E E E
|-----------------------|-------------------------||
|-----------------------|------------------------o||
|-----------------------|-------------------------||
|-----------------------|-------------------------||
|-0-0-0-0-0-0-0---0-0-0-|-0-0-0-0---0-0-0-0------o||
|-0-0-0-0-0-0-0---0-0-0-|-0-0-0-0---0-0-0-0-------||


Lead-Harmony
D5 Bb5
4/4
Gtr I
~~~ ~~~~~~~~~~~~~~~~~~~
H. Q Q Q Q E E W +H +Q Q
|---------------|----------6-8-|-10-----------|-(10)-----(10)\--/12--|
|-/6------------|-6-----6------|--------------|----------------------|
|------------7--|----7---------|--------------|----------------------|
|---------------|--------------|--------------|----------------------|
|---------------|--------------|--------------|----------------------|
|---------------|--------------|--------------|----------------------|
|
| Gtr II
| ~~~ ~~~~~~~~~~~~~~~~~~~
| H. Q Q Q Q E E W +H +Q Q
|---------------|----------3-5-|--6-----------|--(6)------(6)\-------|
|---------------|--------------|--------------|-----------------/13--|
|-/7------------|-7-----7------|--------------|----------------------|
|------------7--|----7---------|--------------|----------------------|
|---------------|--------------|--------------|----------------------|
|---------------|--------------|--------------|----------------------|
|
| Gtr III
| Q Q Q Q Q Q Q Q Q Q Q Q Q Q Q Q
|---------------|--------------|--------------|----------------------|
|---------------|--------------|--------------|----------------------|
|---------------|--------------|--------------|----------------------|
|--0---0--0--0--|-0--0--0--0---|--8--8--8--8--|---8---8----8------8--|
|--0---0--0--0--|-0--0--0--0---|--8--8--8--8--|---8---8----8------8--|
|--0---0--0--0--|-0--0--0--0---|--8--8--8--8--|---8---8----8------8--|


G5 F5 C/E
~~~~~~~~~~~~~~~~~~~
Q Q Q Q Q Q Q Q W +H +Q E E
|-13--10--10--13--|-12----------/12--|-/15-----------|-(15)-----(15)\--/17-15-|
|-----------------|-----13--13-------|---------------|------------------------|
|-----------------|------------------|---------------|------------------------|
|-----------------|------------------|---------------|------------------------|
|-----------------|------------------|---------------|------------------------|
|-----------------|------------------|---------------|------------------------|
|
| ~~~~~~~~~~~~~~~~~~~
| Q Q Q Q Q Q Q Q W +H +Q E E
|-10----------10--|--8---------------|-/12-----------|-(12)-----(12)\--/13-12-|
|-----11--11------|-----10--10--/13--|---------------|------------------------|
|-----------------|------------------|---------------|------------------------|
|-----------------|------------------|---------------|------------------------|
|-----------------|------------------|---------------|------------------------|
|-----------------|------------------|---------------|------------------------|
|
| Q Q Q Q Q Q Q Q Q Q Q Q Q Q Q Q
|-----------------|------------------|---------------|------------------------|
|-----------------|------------------|---------------|------------------------|
|-----------------|------------------|---------------|------------------------|
|--5---5---5---5--|--3---3---3----3--|---2--2--2--2--|---2---2----2------2----|
|--5---5---5---5--|--3---3---3----3--|---3--3--3--3--|---3---3----3------3----|
|--5---5---5---5--|--3---3---3----3--|---2--2--2--2--|---2---2----2------2----|


D5
E E H E E E E H E E
|-17-15----------17-15-|-17-15----------/15-13-|
|-------18-------------|-------18--------------|
|----------------------|-----------------------|
|----------------------|-----------------------|
|----------------------|-----------------------|
|----------------------|-----------------------|
|
| ~~ ~~
| E E H E E E E H E E
|-13-12----------13-12-|-13-12----------/18-17-|
|-------15-------------|-------15--------------|
|----------------------|-----------------------|
|----------------------|-----------------------|
|----------------------|-----------------------|
|----------------------|-----------------------|
|
| E Q E E Q E E Q E E Q E
|----------------------|-----------------------|
|----------------------|-----------------------|
|----------------------|-----------------------|
|--0--0----0-0-0-----0-|--0--0----0-0-0------0-|
|--0--0----0-0-0-----0-|--0--0----0-0-0------0-|
|--0--0----0-0-0-----0-|--0--0----0-0-0------0-|


Bb5
E E H E E E E Q Q Q
|-15-13----------15-13-|-15-13------12---13---|
|-------15-------------|-------15-------------|
|----------------------|----------------------|
|----------------------|----------------------|
|----------------------|----------------------|
|----------------------|----------------------|
|
| E E H E E E E Q Q Q
|-18-17----------18-17-|-18-17------15---17---|
|-------18-------------|-------18-------------|
|----------------------|----------------------|
|----------------------|----------------------|
|----------------------|----------------------|
|----------------------|----------------------|
|
| E Q E E Q E E Q E E Q E
|----------------------|----------------------|
|----------------------|----------------------|
|----------------------|----------------------|
|--8--8----8-8-8-----8-|--8--8----8--8-8----8-|
|--8--8----8-8-8-----8-|--8--8----8--8-8----8-|
|--8--8----8-8-8-----8-|--8--8----8--8-8----8-|


G5 F5
Q Q Q Q Q Q Q Q
|-15-------------15---|-13-------------13---|
|------15-------------|------13-------------|
|-----------15--------|-----------12--------|
|---------------------|---------------------|
|---------------------|---------------------|
|---------------------|---------------------|
|
| Q Q Q Q Q Q Q Q
|-18---15--------18---|-17-------------17---|
|-----------15--------|------18-------------|
|---------------------|-----------17--------|
|---------------------|---------------------|
|---------------------|---------------------|
|---------------------|---------------------|
|
| E Q E E Q E E Q E E Q E
|---------------------|---------------------|
|---------------------|---------------------|
|---------------------|---------------------|
|--5-5----5--5-5----5-|--3-3----3--3-3----3-|
|--5-5----5--5-5----5-|--3-3----3--3-3----3-|
|--5-5----5--5-5----5-|--3-3----3--3-3----3-|


C/E
~~~ ~~
|---3---|
H. E E E W
|-12-----------10-12---10-|--8---------------|
|-------------------------|------------------|
|-------------------------|------------------|
|-------------------------|------------------|
|-------------------------|------------------|
|-------------------------|------------------|
|
| ~~~ ~~
| |---3---|
| H. E E E W
|-15-----------13h15p==13-|-12---------------|
|-------------------------|------------------|
|-------------------------|------------------|
|-------------------------|------------------|
|-------------------------|------------------|
|-------------------------|------------------|
|
| E Q E E Q E E Q E E Q E
|-------------------------|------------------|
|-------------------------|------------------|
|-------------------------|------------------|
|--2--2--2-2-2-------2----|--2-2--2-2-2--2---|
|--3--3--3-3-3-------3----|--3-3--3-3-3--3---|
|--2--2--2-2-2-------2----|--2-2--2-2-2--2---|


Dive
D5 G#5
Gtr II
PM-----| PM--------| PM------------------------------------
E E E E E E E E E E E E E E E E
|-----------------------------------|----------------------------------|
|-----------------------------------|----------------------------------|
|-----------------------------------|----------------------------------|
|-----------------------------------|----------------------------------|
|--0------0------0---0-----0------0-|---0------0------0---6---6---6--6-|
|--0------0------0---0-----0------0-|---0------0------0---6---6---6--6-|
|
| Gtr I
| \0.25_____________\0.5_______________\0.75_____________\1____________
| Q +Q +Q +Q +Q +Q +Q +Q
|-25--------(25)---(25)------(25)---|-(25)-------(25)---(25)----(25)---|
|-----------------------------------|----------------------------------|
|-----------------------------------|----------------------------------|
|-----------------------------------|----------------------------------|
|-----------------------------------|----------------------------------|
|-----------------------------------|----------------------------------|


D5 F#5
----------| PM--------| PM---------------------------------|
E E E E E E E E E E E E E E E E
|------------------------------------|----------------------------------|
|------------------------------------|----------------------------------|
|------------------------------------|----------------------------------|
|------------------------------------|----------------------------------|
|---0------0------0---0-----0------0-|---0------0------0---4---4---4--4-|
|---0------0------0---0-----0------0-|---0------0------0---4---4---4--4-|
|
| \1.25_____________\1.5_______________\1.75_____________\2____________
| +Q +Q +Q +Q +Q +Q +Q +Q
|-(25)-------(25)---(25)------(25)---|-(25)-------(25)---(25)----(25)---|
|------------------------------------|----------------------------------|
|------------------------------------|----------------------------------|
|------------------------------------|----------------------------------|
|------------------------------------|----------------------------------|
|------------------------------------|----------------------------------|


D5 G#5
Gtr III
PM-----| PM--------| PM------------------------------------
E E E E E E E E E E E E E E E E
|------------------------------------|----------------------------------|
|------------------------------------|----------------------------------|
|------------------------------------|----------------------------------|
|------------------------------------|----------------------------------|
|---0------0------0---0-----0------0-|---0------0------0---6---6---6--6-|
|---0------0------0---0-----0------0-|---0------0------0---6---6---6--6-|
|
| \2.25_____________\2.5_______________\2.75_____________\3______|
| +Q +Q +Q +Q +Q +Q +Q +Q
|-(25)-------(25)---(25)------(25)---|-(25)-------(25)---(25)----(25)---|
|------------------------------------|----------------------------------|
|------------------------------------|----------------------------------|
|------------------------------------|----------------------------------|
|------------------------------------|----------------------------------|
|------------------------------------|----------------------------------|


D5
------| PM-----| PM----|
E E E E E E E E q H.
|---------------------------------|----------------------|
|---------------------------------|----------------------|
|---------------------------------|----------------------|
|---------------------------------|----------------------|
|--0---0------0---0--0--------0---|---0------------------|
|--0---0------0---0--0--------0---|---0------------------|
|
| \3____________________| /2_________________|
| Q +Q +Q +E +E +Q +E +E H
|-25-----(25)---(25)---(25)-(25)--|-(25)--(25)-(25)------|
|---------------------------------|----------------------|
|---------------------------------|----------------------|
|---------------------------------|----------------------|
|---------------------------------|----------------------|
|---------------------------------|----------------------|


Guitar Solo
G5 D5 G5 D5 G5 D5 Bb5
Gtr III
E Q E E Q E E Q E E E E E
|-----------------------------------|------------------------------------|
|-----------------------------------|------------------------------------|
|-----------------------------------|------------------------3-----3-3-3-|
|--5-----0-----------0---5-----0--0-|--5-----0-----------0---3-----3-3-3-|
|--5-----0-----------0---5-----0--0-|--5-----0-----------0---1-----1-1-1-|
|--5-----0-----------0---5-----0--0-|--5-----0-----------0---------------|
|
| Gtr I
| ~~~~~~~ ~~~~~~~
| S S S S S S E +H S S S S S S E +H
|-----------------------------------|------------------------------------|
|-----------------------------------|-------15-15-13-13-15-(15)b18-------|
|-------13-13-------13-(13)b14------|-13-13------------------------------|
|-12-12-------12-12-----------------|------------------------------------|
|-----------------------------------|------------------------------------|
|-----------------------------------|------------------------------------|


G5 D5 G5 D5
E Q E E Q E
|------------------------------------------------|
|------------------------------------------------|
|------------------------------------------------|
|--5-----0-----------0---5------0-----------0----|
|--5-----0-----------0---5------0-----------0----|
|--5-----0-----------0---5------0-----------0----|
|
| ~~~~~~~
| S S S S S S E +E S S S S S S
|------------------------------------------------|
|------------------------------18-15-------------|
|-------13-13-------13-(13)b14-------17-14-------|
|-12-12-------12-12------------------------17-15-|
|------------------------------------------------|
|------------------------------------------------|


G5 D#5 Bb5 F#5
E Q E E Q E
|------------------------------------------------|
|------------------------------------------------|
|------------------------3-----------------------|
|--5-----1-----------1---3------4-----------4----|
|--5-----1-----------1---1------4-----------4----|
|--5-----1-----------1----------4-----------4----|
|
| ~~~~~~~
| S S S S S S E +E S S S S S S
|------------------------------16-13-------------|
|-------15-15-13-13-15-(15)b18-------15-13-------|
|-13-13------------------------------------14-13-|
|------------------------------------------------|
|------------------------------------------------|
|------------------------------------------------|


G5 D5 G5 D5 G5 D5 Bb5
E Q E E Q E E Q E E E E E
|---------------------------------|---------------------------------|
|---------------------------------|---------------------------------|
|---------------------------------|----------3-----3-----3-----3----|
|--5-0--0--5-----0-----------0----|--5-0--0--3-----3-----3-----3----|
|--5-0--0--5-----0-----------0----|--5-0--0--1-----1-----1-----1----|
|--5-0--0--5-----0-----------0----|--5-0--0-------------------------|
|
| ~~ ~~
| H S S S S S S S S H S S S S S S S S
|---------------------------------|---------------------------------|
|---------------------------------|---------15-15-18-15-14-15-18-14-|
|-14------13-14-15-14-13-14-15-13-|-14------------------------------|
|---------------------------------|---------------------------------|
|---------------------------------|---------------------------------|
|---------------------------------|---------------------------------|


G5 D5 G5 D5 N.C. F#5
PM---------------------------| ~~
E Q E E Q E S S S S S S S S S S S S Q
|---------------------------------|------------------------------------------|
|---------------------------------|------------------------------------------|
|---------------------------------|------------------------------------------|
|--5-0--0--5-----0-----------0----|------------------------------------------|
|--5-0--0--5-----0-----------0----|-------------------1-1----1----1--4-------|
|--5-0--0--5-----0-----------0----|--5-5-5-5-1-1-1-1-----------------4-------|
|
| ~~ ~~
| |---------6----------|
| H S S S S S S S S H E E E E E E
|---------17-17-18-17-16-17-18-16-|-17------------------------------------13-|
|-15------------------------------|----------------------------15---13-15----|
|---------------------------------|-----------------------13-----------------|
|---------------------------------|------------------12----------------------|
|---------------------------------|------------------------------------------|
|---------------------------------|------------------------------------------|


Verse
D5 G#5
Gtr I
>
\1______\2________|
Q +Q +Q +Q +E E H.
|---------------------------------|----------------------|
|-13b15====(13)---(13)----(13)----|-(13)r----------------|
|---------------------------------|----------------------|
|---------------------------------|----------------------|
|---------------------------------|----------------------|
|---------------------------------|----------------------|
|
| Gtr III
| PM----| PM------| PM------------------------
| E E E E E E E E E E E E E E E E
|---------------------------------|----------------------|
|---------------------------------|----------------------|
|---------------------------------|----------------------|
|---------------------------------|----------------------|
|--0-----0------0---0---0-------0-|---0---0----0-6-6-6-6-|
|--0-----0------0---0---0-------0-|---0---0----0-6-6-6-6-|


D5 F#5
W W
|-----------------|-----------------|
|-----------------|-----------------|
|-----------------|-----------------|
|-----------------|-----------------|
|-----------------|-----------------|
|-----------------|-----------------|
|
|---| PM--| PM----------------|
| E E E E E E E E E E E E E E E E
|-----------------|-----------------|
|-----------------|-----------------|
|-----------------|-----------------|
|-----------------|-----------------|
|-0-0---0-0-0---0-|-0-0---0-4-4-4-4-|
|-0-0---0-0-0---0-|-0-0---0-4-4-4-4-|


$
D5 G#5 D5 N.C.
Gtr III
PM| PM--| PM----------------------| PM--| PM--------------------|
|-3-| |-3-|
E E E E E E E E E E E E E E E E E E E E E E E E E E E E E E E E E E
|-----------------|-----------------|-----------------|-----------------------|
|-----------------|-----------------|-----------------|-----------------------|
|-----------------|-----------------|-----------------|-----------------------|
|-----------------|-----------------|-----------------|-----------------------|
|-0-0---0-0-0---0-|-0-0---0-6-6-6-6-|-0-0---0-0-0---0-|-0-0---0---------------|
|-0-0---0-0-0---0-|-0-0---0-6-6-6-6-|-0-0---0-0-0---0-|-0-0---0-5-5-5-1-1-1---|


D5 G#5
Gtr III
PM| PM--| PM-------------------------
E E E E E E E E E E E E E E E E
|-------------------|-----------------------|
|-------------------|-----------------------|
|-------------------|-----------------------|
|-------------------|-----------------------|
|---0-0---0-0-0---0-|---0--0----0---6-6-6-6-|
|---0-0---0-0-0---0-|---0--0----0---6-6-6-6-|
|
| Gtr I
| ~~~
| W +Q Q h
|-------------------|-----------------------|
|-/10---------------|-(10)---/6---/10-------|
|-------------------|-----------------------|
|-------------------|-----------------------|
|-------------------|-----------------------|
|-------------------|-----------------------|
|
| Gtr II
| ~~~
| W +Q Q h
|-------------------|-----------------------|
|-------------------|-----------------------|
|-/10---------------|-(10)---/7---/10-------|
|-------------------|-----------------------|
|-------------------|-----------------------|
|-------------------|-----------------------|


D5 F#5
----| PM--| PM--------------------|
E E E E E E E E E E E E E E E E
|------------------|---------------------|
|------------------|---------------------|
|------------------|---------------------|
|------------------|---------------------|
|--0-0---0-0-0---0-|--0--0----0--4-4-4-4-|
|--0-0---0-0-0---0-|--0--0----0--4-4-4-4-|
|
| ~~
| W +Q Q h
|------------------|---------------------|
|-/9---------------|-(9)---/6---/9-------|
|------------------|---------------------|
|------------------|---------------------|
|------------------|---------------------|
|------------------|---------------------|
|
| ~~
| W +Q Q h
|------------------|---------------------|
|------------------|---------------------|
|-/9---------------|-(9)---/7---/9-------|
|------------------|---------------------|
|------------------|---------------------|
|------------------|---------------------|


D5 G#5
PM| PM--| PM-------------------------------
E E E E E E E E E E E E E E E E
|------------------|-----------------------------|
|------------------|-----------------------------|
|------------------|-----------------------------|
|------------------|-----------------------------|
|--0-0---0-0-0---0-|--0--0----0-6------6---6---6-|
|--0-0---0-0-0---0-|--0--0----0-6------6---6---6-|
|
| ~~
| W +Q Q E +E +Q
|------------------|-----------------------------|
|-/8---------------|-(8)---/6---8b10==(8)-(8)r---|
|------------------|-----------------------------|
|------------------|-----------------------------|
|------------------|-----------------------------|
|------------------|-----------------------------|
|
| ~~
| W +Q Q E +E +Q
|------------------|-----------------------------|
|------------------|-----------------------------|
|-/8---------------|-(8)----7---9b10==(9)-(9)r---|
|------------------|-----------------------------|
|------------------|-----------------------------|
|------------------|-----------------------------|


To Coda
D5 F#5
---| PM--| PM--| PM ~
E E E E E E E E S S S S S S S S S S S S Q
|-----------------|----------------------------------------|
|-----------------|----------------------------------------|
|-----------------|----------------------------------------|
|-----------------|----------------------------------------|
|-0-0---0-0-0---0-|-------------------------1-1-1-1-4------|
|-0-0---0-0-0---0-|-5-----5-5-5--1--1--1--1---------4------|
|
| ~
| W Q +E +H +E
|-----------------|----------------------------------------|
|-6---------------|-8b10========(8)---(8)-------------(8)r-|
|-----------------|----------------------------------------|
|-----------------|----------------------------------------|
|-----------------|----------------------------------------|
|-----------------|----------------------------------------|
|
| ~
| W Q +E +H +E
|-----------------|----------------------------------------|
|-----------------|----------------------------------------|
|-7---------------|-9b10========(9)---(9)-------------(9)r-|
|-----------------|----------------------------------------|
|-----------------|----------------------------------------|
|-----------------|----------------------------------------|


Chorus
N.C. Bb5 C5
Gtr III
~ ~
E E E E E Q E +E E E E E Q E +Q Q E E E E +Q Q E E E E
|----------------|-------------------|----------------------|-----------------|
|----------------|-------------------|----------------------|-----------------|
|----------------|-------------------|----------------------|-----------------|
|----------------|-----------------3-|--(3)--3----3--3--3-5-|-(5)--5--5-5-5-5-|
|----------------|-----------------1-|--(1)--1----1--1--1-3-|-(3)--3--3-3-3-3-|
|-0-6-5-0-3-5--0-|-(0)-6-5-0-3-5-----|----------------------|-----------------|
|
| ~ ~~~~~~~~~~~~~~~~~~~~~~ ~~~~~~~~
| E E E E E Q E +E E E E E Q E +H +E E E E +W
|----------------|-------------------|----------------------|-----------------|
|---9-8---6-8----|-----9-8---6-8-----|------------------6---|-----------------|
|-7-----7------7-|-(7)-----7-------7-|--(7)------(7)-9----9-|-(9)-------------|
|----------------|-------------------|----------------------|-----------------|
|----------------|-------------------|----------------------|-----------------|
|----------------|-------------------|----------------------|-----------------|
|
| ~ ~~~~~~~~~~~~~~~~~~~~~~ ~~~~~~~~
| E E E E E Q E +E E E E E Q E +H +E E E E +W
|----------------|-------------------|----------------------|-----------------|
|---9-8---6-8----|-----9-8---6-8-----|---------------8-10-8-|-(8)-------------|
|-7-----7------7-|-(7)-----7------10-|-(10)-----(10)--------|-----------------|
|----------------|-------------------|----------------------|-----------------|
|----------------|-------------------|----------------------|-----------------|
|----------------|-------------------|----------------------|-----------------|


N.C. Bb5
Gtr III
~ ~
E E E E E Q E +E E E E E Q E
|----------------|-------------------|
|----------------|-------------------|
|----------------|-------------------|
|----------------|-----------------3-|
|----------------|-----------------1-|
|-0-6-5-0-3-5--0-|-(0)-6-5-0-3-5-----|
|
| ~ ~~~~~~~
| E E E E E Q E +E E E E E Q E
|----------------|-------------------|
|---9-8---6-8----|-----9-8---6-8-----|
|-7-----7------7-|-(7)-----7-------7-|
|----------------|-------------------|
|----------------|-------------------|
|----------------|-------------------|
|
| ~ ~~~~~~~
| E E E E E Q E +E E E E E Q E
|----------------|-------------------|
|---9-8---6-8----|-----9-8---6-8-----|
|-7-----7------7-|-(7)-----7------10-|
|----------------|-------------------|
|----------------|-------------------|
|----------------|-------------------|


C5
+Q Q E E E E +Q Q E E E E
|------------------------|------------------|
|------------------------|------------------|
|------------------------|------------------|
|--(3)--3----3--3--3---5-|--(5)--5--5-5-5-5-|
|--(1)--1----1--1--1---3-|--(3)--3--3-3-3-3-|
|------------------------|------------------|
|
|~~~~~~~~~~~~~~~ ~~~~~~~~~
| +H +E E E E +W
|------------------------|------------------|
|------------------6--/8-|--(8)-------------|
|--(7)------(7)-9--------|------------------|
|------------------------|------------------|
|------------------------|------------------|
|------------------------|------------------|
|
|~~~~~~~~~~~~~~~ ~~~~~~~~~
| +H +E E E E +W
|------------------------|------------------|
|---------------8-10-/13-|-(13)-------------|
|-(10)-----(10)----------|------------------|
|------------------------|------------------|
|------------------------|------------------|
|------------------------|------------------|


Guitar Break
D5 C/E
Gtr III
Q Q. E E. +S Q Q. E Q
|------------------------|------------------|
|------------------------|------------------|
|---7---7-----7--7--(7)\-|------------------|
|---7---7-----7--7--(7)\-|-2---2------2--2--|
|---5---5-----5--5--(5)\-|-3---3------3--3--|
|------------------------|-2---2------2--2--|
|
| Gtr I
| Q Q Q Q Q Q Q Q
|------------------------|------------------|
|------------------------|------------------|
|-/10---7-------10-------|-9----------------|
|-----------7------------|----10------------|
|------------------------|---------10----7--|
|------------------------|------------------|
|
| Gtr II
| Q Q Q Q Q Q Q Q
|------------------------|------------------|
|-/10-----------10-------|-8----------------|
|------10---7------------|-----9------------|
|------------------------|---------10-------|
|------------------------|--------------10--|
|------------------------|------------------|


F5 Bb5
Q E Q E Q +Q Q. E Q
|------------------|----------------|
|------------------|----------------|
|---------------3--|-(3)--3----3-3--|
|--3---3-3---3--3--|-(3)--3----3-3--|
|--3---3-3---3--1--|-(1)--1----1-1--|
|--3---3-3---3-----|----------------|
|
| ~~~~~~~~~
| Q. q. Q +W
|------------------|----------------|
|------------------|----------------|
|-/9-----7---------|----------------|
|--------------/8--|-(8)------------|
|------------------|----------------|
|------------------|----------------|
|
| ~~~~~~~~~
| Q. q. Q +W
|------------------|----------------|
|-/8-----6---------|----------------|
|--------------/7--|-(7)------------|
|------------------|----------------|
|------------------|----------------|
|------------------|----------------|


D5 C/E
Q Q. E E. +S Q Q. E Q
|------------------------|------------------|
|------------------------|------------------|
|---7---7-----7--7--(7)\-|------------------|
|---7---7-----7--7--(7)\-|-2---2------2--2--|
|---5---5-----5--5--(5)\-|-3---3------3--3--|
|------------------------|-2---2------2--2--|
|
| Q Q Q Q Q Q Q Q
|------------------------|------------------|
|------------------------|------------------|
|-/10---7-------10-------|-9----------------|
|-----------7------------|----10------------|
|------------------------|---------10----7--|
|------------------------|------------------|
|
| Q Q Q Q Q Q Q Q
|------------------------|------------------|
|-/10-----------10-------|-8----------------|
|------10---7------------|-----9------------|
|------------------------|---------10-------|
|------------------------|--------------10--|
|------------------------|------------------|


A5 Bb5
q. q. Q +Q Q. E E +E
|---------------|----------------------|
|---------------|----------------------|
|-2-----2----3--|-(3)--3----3--3--(3)\-|
|-2-----2----3--|-(3)--3----3--3--(3)\-|
|-0-----0----1--|-(1)--1----1--1--(1)\-|
|---------------|----------------------|
|
| ~~~~~~~~~
| q. q. Q +H. +E +E
|---------------|----------------------|
|---------------|----------------------|
|-9----10----7--|-(7)---------(7)-(7)\-|
|---------------|----------------------|
|---------------|----------------------|
|---------------|----------------------|
|
| ~~~~~~~~~
| q. q. Q +H. +E +E
|---------------|----------------------|
|-8----10----6--|-(6)---------(6)-(6)\-|
|---------------|----------------------|
|---------------|----------------------|
|---------------|----------------------|
|---------------|----------------------|


D.S. al Coda
D5 G#5 D5 F#5
Gtr III
PM| PM--| PM----------------------| PM--| PM----------------|
E E E E E E E E E E E E E E E E E E E E E E E E E E E E E E E E
|-----------------|-----------------|-----------------|-----------------|
|-----------------|-----------------|-----------------|-----------------|
|-----------------|-----------------|-----------------|-----------------|
|-----------------|-----------------|-----------------|-----------------|
|-0-0---0-0-0---0-|-0-0---0-6-6-6-6-|-0-0---0-0-0---0-|-0-0---0-4-4-4-4-|
|-0-0---0-0-0---0-|-0-0---0-6-6-6-6-|-0-0---0-0-0---0-|-0-0---0-4-4-4-4-|


Verse Extended
&
D5 G#5 D5 F#5
E E E E E E E E E E E E E E E E E E E E E E E E E E E E E E E E
||------------------|-----------------|-----------------|-------------------||
||o-----------------|-----------------|-----------------|------------------o||
||------------------|-----------------|-----------------|-------------------||
||--0-0---0-0-0---0-|-0-0---0-6-6-6-6-|-0-0---0-0-0---0-|-0-0---0-4-4-4-4---||
||o-0-0---0-0-0---0-|-0-0---0-6-6-6-6-|-0-0---0-0-0---0-|-0-0---0-4-4-4-4--o||
||--0-0---0-0-0---0-|-0-0---0-6-6-6-6-|-0-0---0-0-0---0-|-0-0---0-4-4-4-4---||


N.C. Bb5 C5
Gtr III
~ ~
E E E E E Q E +E E E E E Q E +Q Q E E E E +Q Q E E E E
|----------------|-------------------|----------------------|-----------------|
|----------------|-------------------|----------------------|-----------------|
|----------------|-------------------|----------------------|-----------------|
|----------------|-----------------3-|--(3)--3----3--3--3-5-|-(5)--5--5-5-5-5-|
|----------------|-----------------1-|--(1)--1----1--1--1-3-|-(3)--3--3-3-3-3-|
|-0-6-5-0-3-5--0-|-(0)-6-5-0-3-5-----|----------------------|-----------------|
|
| Gtr I
| ~ ~~~~~~~~~~~~~~~~~~~~~~ ~~~~~~~~
| E E E E E Q E +E E E E E Q E +H +E E E E +W
|----------------|-------------------|----------------------|-----------------|
|---9-8---6-8----|-----9-8---6-8-----|------------------6---|-----------------|
|-7-----7------7-|-(7)-----7-------7-|--(7)------(7)-9----9-|-(9)-------------|
|----------------|-------------------|----------------------|-----------------|
|----------------|-------------------|----------------------|-----------------|
|----------------|-------------------|----------------------|-----------------|
|
| Gtr II
| ~ ~~~~~~~~~~~~~~~~~~~~~~ ~~~~~~~~
| E E E E E Q E +E E E E E Q E +H +E E E E +W
|----------------|-------------------|----------------------|-----------------|
|---9-8---6-8----|-----9-8---6-8-----|---------------8-10-8-|-(8)-------------|
|-7-----7------7-|-(7)-----7------10-|-(10)-----(10)--------|-----------------|
|----------------|-------------------|----------------------|-----------------|
|----------------|-------------------|----------------------|-----------------|
|----------------|-------------------|----------------------|-----------------|


N.C. Bb5
Gtr III
~ ~
E E E E E Q E +E E E E E Q E
|----------------|-------------------|
|----------------|-------------------|
|----------------|-------------------|
|----------------|-----------------3-|
|----------------|-----------------1-|
|-0-6-5-0-3-5--0-|-(0)-6-5-0-3-5-----|
|
| Gtr I
| ~ ~~~~~~~
| E E E E E Q E +E E E E E Q E
|----------------|-------------------|
|---9-8---6-8----|-----9-8---6-8-----|
|-7-----7------7-|-(7)-----7-------7-|
|----------------|-------------------|
|----------------|-------------------|
|----------------|-------------------|
|
| Gtr II
| ~ ~~~~~~~
| E E E E E Q E +E E E E E Q E
|----------------|-------------------|
|---9-8---6-8----|-----9-8---6-8-----|
|-7-----7------7-|-(7)-----7------10-|
|----------------|-------------------|
|----------------|-------------------|
|----------------|-------------------|


C5
+Q Q E E E E +Q Q E E E E
|------------------------|------------------|
|------------------------|------------------|
|------------------------|------------------|
|--(3)--3----3--3--3---5-|--(5)--5--5-5-5-5-|
|--(1)--1----1--1--1---3-|--(3)--3--3-3-3-3-|
|------------------------|------------------|
|
|~~~~~~~~~~~~~~~ ~~~~~~~~~
| +H +E E E E +W
|------------------------|------------------|
|------------------6--/8-|--(8)-------------|
|--(7)------(7)-9--------|------------------|
|------------------------|------------------|
|------------------------|------------------|
|------------------------|------------------|
|
|~~~~~~~~~~~~~~~ ~~~~~~~~~
| +H +E E E E +W
|------------------------|------------------|
|---------------8-10-/13-|-(13)-------------|
|-(10)-----(10)----------|------------------|
|------------------------|------------------|
|------------------------|------------------|
|------------------------|------------------|


Bridge
D5 F5 G5 Bb5
Gtr III
Q. Q E E E +E E E Q E E E
||----------------------|------------------------|
||o---------------------|------------------------|
||----------------------|------------------------|
||----0-----3---3--3--5-|--(5)--5--5--8----8-8-8-|
||o---0-----3---3--3--5-|--(5)--5--5--8----8-8-8-|
||----0-----3---3--3--5-|--(5)--5--5--8----8-8-8-|
|
| Gtr I
| ~~~~~
| Q. Q E E E +E E E E H
||----------------------|------------------------|
||o--------10--10-10-11-|-(11)-11-11-11s15-------|
||--/10-----------------|------------------------|
||----------------------|------------------------|
||o---------------------|------------------------|
||----------------------|------------------------|
|
| Gtr II
| ~~~~~
| Q. Q E E E +E E E E H
||----------------------|------------------------|
||o---------6---6--6--8-|--(8)--8--8--8s11-------|
||---/7-----------------|------------------------|
||----------------------|------------------------|
||o---------------------|------------------------|
||----------------------|------------------------|


A5
~~ PM-----------------|
Q E E E E E E E E E E E E E E
|-------------------------|-----------------------------||
|-------------------------|----------------------------o||
|-------------------------|-----------------------------||
|--7----------------------|--------7---7---7--7--7--7---||
|--7-----------------7--7-|--7--7--7---7---7--7--7--7--o||
|--7-----7--7--7--7--7--7-|--7--7--7---7---7--7--7--7---||
|
| E E E E E E E E E E E E E E E E
|-------------------------|---------------12----12s13---||
|-14-15-14----14-15-14----|-14-15-14-(14)----14--------o||
|----------12----------12-|-----------12----------------||
|-------------------------|-----------------------------||
|-------------------------|----------------------------o||
|-------------------------|-----------------------------||
|
| E E E E E E E E E E E E E E E E
|-------------------------|----------------9-----9s10---||
|-10-11-10----10-11-10----|-10-11-10-(10)----10--------o||
|-----------9-----------9-|------------9----------------||
|-------------------------|-----------------------------||
|-------------------------|----------------------------o||
|-------------------------|-----------------------------||


D5 Bb5 A5 A/C#
Gtr III
Q H Q Q H Q Q H Q Q Q Q Q
|--------------|--------------|------------|--------------|
|--------------|--------------|------------|--------------|
|-7--7------7--|-3--3------3--|-2--2----2--|-6--6--6---6--|
|-7--7------7--|-3--3------3--|-2--2----2--|-7--7--7---7--|
|-5--5------5--|-1--1------1--|-0--0----0--|-4--4--4---4--|
|--------------|--------------|------------|--------------|
|
| Gtrs I, II
| Q Q Q Q Q Q Q Q Q H Q Q Q Q Q
|--------------|--------------|------------|--------------|
|--------------|--------------|------------|--------------|
|-7--7--9--10--|-9--7--9--10--|-9--6----6--|-7--7--9--10--|
|-x--x--x---x--|-x--x--x---x--|-x--x----x--|-x--x--x---x--|
|-5--5--7---8--|-7--5--7---8--|-7--4----4--|-5--5--7---8--|
|--------------|--------------|------------|--------------|


D5 Bb5 A5 A/C#
Q H Q Q H Q Q H Q Q Q Q Q
|--------------|--------------|------------|--------------|
|--------------|--------------|------------|--------------|
|-7--7------7--|-3--3------3--|-2--2----2--|-6--6--6---6--|
|-7--7------7--|-3--3------3--|-2--2----2--|-7--7--7---7--|
|-5--5------5--|-1--1------1--|-0--0----0--|-4--4--4---4--|
|--------------|--------------|------------|--------------|
|
| Q Q Q Q Q Q Q Q Q H Q Q Q Q Q
|--------------|--------------|------------|--------------|
|--------------|--------------|------------|--------------|
|-9--7--9--10--|-9--7--9--10--|-6--6----6--|-7--7--9--10--|
|-x--x--x---x--|-x--x--x---x--|-x--x----x--|-x--x--x---x--|
|-7--5--7---8--|-7--5--7---8--|-4--4----4--|-5--5--7---8--|
|--------------|--------------|------------|--------------|


D5 C/E
Gtr III
Q Q. E E. +S Q Q. E Q
|------------------------|------------------|
|------------------------|------------------|
|---7---7-----7--7--(7)\-|------------------|
|---7---7-----7--7--(7)\-|-2---2------2--2--|
|---5---5-----5--5--(5)\-|-3---3------3--3--|
|------------------------|-2---2------2--2--|
|
| Gtr I
| Q Q Q Q Q Q Q Q
|------------------------|------------------|
|------------------------|------------------|
|-/10---7-------10-------|-9----------------|
|-----------7------------|----10------------|
|------------------------|---------10----7--|
|------------------------|------------------|
|
| Gtr II
| Q Q Q Q Q Q Q Q
|------------------------|------------------|
|-/10-----------10-------|-8----------------|
|------10---7------------|-----9------------|
|------------------------|---------10-------|
|------------------------|--------------10--|
|------------------------|------------------|


F5 Bb5
Q E Q E Q +Q Q. E Q
|------------------|----------------|
|------------------|----------------|
|---------------3--|-(3)--3----3-3--|
|--3---3-3---3--3--|-(3)--3----3-3--|
|--3---3-3---3--1--|-(1)--1----1-1--|
|--3---3-3---3-----|----------------|
|
| ~~~~~~~~~
| Q. q. Q +W
|------------------|----------------|
|------------------|----------------|
|-/9-----7---------|----------------|
|--------------/8--|-(8)------------|
|------------------|----------------|
|------------------|----------------|
|
| ~~~~~~~~~
| Q. q. Q +W
|------------------|----------------|
|-/8-----6---------|----------------|
|--------------/7--|-(7)------------|
|------------------|----------------|
|------------------|----------------|
|------------------|----------------|


D5 C/E
Q Q. E E. +S Q Q. E Q
|------------------------|------------------|
|------------------------|------------------|
|---7---7-----7--7--(7)\-|------------------|
|---7---7-----7--7--(7)\-|-2---2------2--2--|
|---5---5-----5--5--(5)\-|-3---3------3--3--|
|------------------------|-2---2------2--2--|
|
| Q Q Q Q Q Q Q Q
|------------------------|------------------|
|------------------------|------------------|
|-/10---7-------10-------|-9----------------|
|-----------7------------|----10------------|
|------------------------|---------10----7--|
|------------------------|------------------|
|
| Q Q Q Q Q Q Q Q
|------------------------|------------------|
|-/10-----------10-------|-8----------------|
|------10---7------------|-----9------------|
|------------------------|---------10-------|
|------------------------|--------------10--|
|------------------------|------------------|


A5 Bb5
~~~~~~~~
Q E E Q Q +E E E E E E +Q
|------------------|---------------------------|
|------------------|---------------------------|
|--2---2--2--------|---------------------------|
|--2---2--2-----8--|-(8)-7-8-7-8-10-(10)\------|
|--0---0--0-----8--|-(8)-x-x-x-x--x--(x)-------|
|---------------8--|-(8)-7-8-7-8-10-(10)\------|
|
| ~~~~~~~~~
| Q. q. Q +H. +E +E
|------------------|---------------------------|
|------------------|---------------------------|
|-/9-----10-----7--|-(7)-------------(7)--(7)\-|
|------------------|---------------------------|
|------------------|---------------------------|
|------------------|---------------------------|
|
| ~~~~~~~~~
| Q. q. Q +H. +E +E
|------------------|---------------------------|
|-/8-----10-----6--|-(6)-------------(6)--(6)\-|
|------------------|---------------------------|
|------------------|---------------------------|
|------------------|---------------------------|
|------------------|---------------------------|


D5 C/E
Gtr III
Q Q. E E. +S Q Q. E Q
|------------------------|------------------|
|------------------------|------------------|
|---7---7-----7--7--(7)\-|------------------|
|---7---7-----7--7--(7)\-|-2---2------2--2--|
|---5---5-----5--5--(5)\-|-3---3------3--3--|
|------------------------|-2---2------2--2--|
|
| Gtr I
| Q Q Q Q Q Q Q Q
|------------------------|------------------|
|------------------------|------------------|
|-/10---7-------10-------|-9----------------|
|-----------7------------|----10------------|
|------------------------|---------10----7--|
|------------------------|------------------|
|
| Gtr II
| Q Q Q Q Q Q Q Q
|------------------------|------------------|
|-/10-----------10-------|-8----------------|
|------10---7------------|-----9------------|
|------------------------|---------10-------|
|------------------------|--------------10--|
|------------------------|------------------|


F5 Bb5
Q E Q E Q +Q Q. E Q
|------------------|----------------|
|------------------|----------------|
|---------------3--|-(3)--3----3-3--|
|--3---3-3---3--3--|-(3)--3----3-3--|
|--3---3-3---3--1--|-(1)--1----1-1--|
|--3---3-3---3-----|----------------|
|
| ~~~~~~~~~
| Q. q. Q +W
|------------------|----------------|
|------------------|----------------|
|-/9-----7---------|----------------|
|--------------/8--|-(8)------------|
|------------------|----------------|
|------------------|----------------|
|
| ~~~~~~~~~
| Q. q. Q +W
|------------------|----------------|
|-/8-----6---------|----------------|
|--------------/7--|-(7)------------|
|------------------|----------------|
|------------------|----------------|
|------------------|----------------|


D5 C/E
Q Q. E E. +S Q Q. E Q
|------------------------|--------------------|
|------------------------|--------------------|
|---7---7-----7--7--(7)\-|--------------------|
|---7---7-----7--7--(7)\-|---2---2------2--2--|
|---5---5-----5--5--(5)\-|---3---3------3--3--|
|------------------------|---2---2------2--2--|
|
| Q Q Q Q Q Q Q Q
|------------------------|--------------------|
|------------------------|--------------------|
|-/10---7-------10-------|---9-------------9--|
|-----------7------------|------10---10-------|
|------------------------|--------------------|
|------------------------|--------------------|
|
| Q Q Q Q Q Q Q Q
|------------------------|--------------------|
|-/10-----------10-------|-/13------------13--|
|------10---7------------|------12------------|
|------------------------|-----------14-------|
|------------------------|--------------------|
|------------------------|--------------------|


A5 Bb5
~~~~~~~~
Q E E Q Q +E E E E E E +Q
|---------------------|-----------------------------|
|---------------------|-----------------------------|
|---2---2--2----------|-----------------------------|
|---2---2--2-------8--|--(8)-7-8-7-8-10-(10)\-------|
|---0---0--0-------8--|--(8)-x-x-x-x--x--(x)--------|
|------------------8--|--(8)-7-8-7-8-10-(10)\-------|
|
| ~~~~~~~~~~
| Q. q E Q +H. +E +E
|--/8-----10---10s=6--|--(6)-------------(6)---(6)\-|
|---------------------|-----------------------------|
|---------------------|-----------------------------|
|---------------------|-----------------------------|
|---------------------|-----------------------------|
|---------------------|-----------------------------|
|
| ~~~~~~~~~~
| Q. q E Q +H. +E +E
|-/12-----13---13s10--|-(10)------------(10)--(10)\-|
|---------------------|-----------------------------|
|---------------------|-----------------------------|
|---------------------|-----------------------------|
|---------------------|-----------------------------|
|---------------------|-----------------------------|


Re-Intro
D5
2/2
PM----------| PM------------| PM----|
|----6----| |-3-| |-3-| |-3-|
E E E E E E E E E E E E E E E E E E E E E
|-----------------------|---------------------|
|-----------------------|---------------------|
|-----------------------|---------------------|
|-----------------------|---------------------|
|-0-0-0-0-0-0-0---0-0-0-|-0-0-0-0---0-0-0-0---|
|-0-0-0-0-0-0-0---0-0-0-|-0-0-0-0---0-0-0-0---|


Kick Fest
N.C.
Wx2
|--------|
|--------|
|--------|
|--------|
|--------|
|--------|


Interlude
D5
Gtr III
PM--------| PM----------| PM--|
|----6----| |-3-| |-3-| |-3-|
E E E E E E E E E E E E E E E E E E E E E
||------------------------|---------------------|
||o-----------------------|---------------------|
||------------------------|---------------------|
||--------------0---------|-------0---------0---|
||o-------------0---------|-------0---------0---|
||--0-0-0-0-0-0-0---0-0-0-|-0-0-0-0---0-0-0-0---|


Bb5
PM--------| PM----------| PM--|
|----6----| |-3-| |-3-| |-3-|
E E E E E E E E E E E E E E E E E E E E E
|-----------------------|----------------------|
|-----------------------|----------------------|
|-------------3---------|-------3---------3----|
|-------------3---------|-------3---------3----|
|-1-1-1-1-1-1-1---1-1-1-|-1-1-1-1---1-1-1-1----|
|-----------------------|----------------------|


G5 F5
PM--------| PM----------| PM--|
|----6----| |-3-| |-3-| |-3-|
E E E E E E Q E E E E E E Q E E E Q
|----------------------|-------------------|
|----------------------|-------------------|
|----------------------|-------------------|
|-------------5--------|-------3--------3--|
|-------------5--------|-------3--------3--|
|-5-5-5-5-5-5-5--3-3-3-|-3-3-3-3--3-3-3-3--|


C/E
PM--------| PM----------| PM--|
|----6----| |-3-| |-3-| |-3-|
E E E E E E Q E E E E E E Q E E E Q
|----------------------|----------------------||
|----------------------|---------------------o||
|----------------------|----------------------||
|-------------2--------|-------2--------2-----||
|-------------3--------|-------3--------3----o||
|-2-2-2-2-2-2-2--2-2-2-|-2-2-2-2--2-2-2-2-----||


Interlude Solo
D5 Bb5
Gtr III
W W W H H
|-------------|----------------|---------------|------------------|
|-------------|----------------|---------------|------------------|
|-------------|----------------|--3------------|---3-----3--------|
|--0----------|-0--------------|--3------------|---3-----3--------|
|--0----------|-0--------------|--1------------|---1-----1--------|
|--0----------|-0--------------|---------------|------------------|
|
| Gtr IV
| ~~~ ~~~ ~~~~
| H. Q Q Q Q E E H. Q H. E E
|-------------|----------------|---------------|------------15-17-|
|-------------|-----------8-10-|-11-------/13--|-/15--------------|
|-/7----------|-7-----10-------|---------------|------------------|
|----------7--|----7-----------|---------------|------------------|
|-------------|----------------|---------------|------------------|
|-------------|----------------|---------------|------------------|


G5 F5 C/E
H H H H W
|-----------------|------------------------|------------------|
|-----------------|------------------------|------------------|
|-----------------|------------------------|------------------|
|--5-------5------|--3-------3-------------|---2--------------|
|--5-------5------|--3-------3-------------|---3--------------|
|--5-------5------|--3-------3-------------|---2--------------|
|
| ~~~~
| Q Q Q Q Q Q Q E +E +H. E E
|-18--15------18--|-17----------15-(15)b17-|-(15)-------------|
|---------15------|-----18-----------------|-----------/13-10-|
|-----------------|---------17-------------|------------------|
|-----------------|------------------------|------------------|
|-----------------|------------------------|------------------|
|-----------------|------------------------|------------------|


+W
|-----------------------------------------------------|
|-----------------------------------------------------|
|-----------------------------------------------------|
|-(2)-------------------------------------------------|
|-(3)-------------------------------------------------|
|-(2)-------------------------------------------------|
|
| |-----5-----|
| S S S S S S S S S S S S S S S S S
|--------12-13-------12-15-------12-13-------12-15-20-|
|-13--15-------13-15-------13-15-------13-15----------|
|-----------------------------------------------------|
|-----------------------------------------------------|
|-----------------------------------------------------|
|-----------------------------------------------------|


Re-Enter Lead Harmony
D5
4/4
Gtr I
W Q Q Q E E
|-20b22--------------|-------------6-8-|
|--------------------|-6-------6-------|
|--------------------|-----7-----------|
|--------------------|-----------------|
|--------------------|-----------------|
|--------------------|-----------------|
|
| Gtr II
| ~~~~~
| H. Q Q Q Q E E
|--------------------|-------------3-5-|
|--------------------|-----------------|
|-/7-----------------|-7-------7-------|
|----------------7---|-----7-----------|
|--------------------|-----------------|
|--------------------|-----------------|
|
| Gtr III
| E Q E E Q E E Q E E Q E
|--------------------|-----------------|
|--------------------|-----------------|
|--------------------|-----------------|
|--0----0--0-0-0---0-|-0-0---0-0-0---0-|
|--0----0--0-0-0---0-|-0-0---0-0-0---0-|
|--0----0--0-0-0---0-|-0-0---0-0-0---0-|


Bb5
~~~~~~~~~~~~~~~~~~~~~
W +H +Q Q
|-10-------------|-(10)------(10)\---/12---|
|----------------|-------------------------|
|----------------|-------------------------|
|----------------|-------------------------|
|----------------|-------------------------|
|----------------|-------------------------|
|
| ~~~~~~~~~~~~~~~~~~~~~
| W +H +Q Q
|--6-------------|--(6)-------(6)\---------|
|----------------|-------------------/13---|
|----------------|-------------------------|
|----------------|-------------------------|
|----------------|-------------------------|
|----------------|-------------------------|
|
| E Q E E Q E E Q E E Q E
|----------------|-------------------------|
|----------------|-------------------------|
|----------------|-------------------------|
|--8-8--8-8-8--8-|---8--8--8---8---8-----8-|
|--8-8--8-8-8--8-|---8--8--8---8---8-----8-|
|--8-8--8-8-8--8-|---8--8--8---8---8-----8-|


G5 F5
Q Q Q Q Q Q Q Q
|-13-----10----10------13----|-12--------------------/12----|
|----------------------------|---------13----13-------------|
|----------------------------|------------------------------|
|----------------------------|------------------------------|
|----------------------------|------------------------------|
|----------------------------|------------------------------|
|
| Q Q Q Q Q Q Q Q
|-10-------------------10----|--8---------------------------|
|--------11----11------------|---------10----10------/13----|
|----------------------------|------------------------------|
|----------------------------|------------------------------|
|----------------------------|------------------------------|
|----------------------------|------------------------------|
|
| PM| PM----| PM------| PM----| PM
| E E E E E E E E E E E E E E E E
|----------------------------|------------------------------|
|----------------------------|------------------------------|
|----------------------------|------------------------------|
|---------8-------------8----|----------7--------------7----|
|-----5--(5)-5-(5)--5--(5)-5-|-(5)--3--(3)-3-(3)--3---(3)-3-|
|--5-(5)--------5--(5)-------|--3--(3)--------3--(3)--------|


C/E
~~~~~~~~~~~~~~~~~~~~~
W +H +Q E E
|-/15-------------|-(15)------(15)\---/17-15-|
|-----------------|--------------------------|
|-----------------|--------------------------|
|-----------------|--------------------------|
|-----------------|--------------------------|
|-----------------|--------------------------|
|
| ~~~~~~~~~~~~~~~~~~~~~
| W +H +Q E E
|-/12-------------|-(12)------(12)\---/13-12-|
|-----------------|--------------------------|
|-----------------|--------------------------|
|-----------------|--------------------------|
|-----------------|--------------------------|
|-----------------|--------------------------|
|
| E Q E E Q E E Q E E Q E
|-----------------|--------------------------|
|-----------------|--------------------------|
|-----------------|--------------------------|
|---2-2--2-2-2--2-|---2--2--2---2---2------2-|
|---3-3--3-3-3--3-|---3--3--3---3---3------3-|
|---2-2--2-2-2--2-|---2--2--2---2---2------2-|


D5
E E H E E E E H E E
|-17-15----------17-15-|-17-15----------/15-13-|
|-------18-------------|-------18--------------|
|----------------------|-----------------------|
|----------------------|-----------------------|
|----------------------|-----------------------|
|----------------------|-----------------------|
|
| ~~ ~~
| E E H E E E E H E E
|-13-12----------13-12-|-13-12----------/18-17-|
|-------15-------------|-------15--------------|
|----------------------|-----------------------|
|----------------------|-----------------------|
|----------------------|-----------------------|
|----------------------|-----------------------|
|
| E Q E E Q E E Q E E Q E
|----------------------|-----------------------|
|----------------------|-----------------------|
|----------------------|-----------------------|
|--0--0----0-0-0-----0-|--0--0----0-0-0------0-|
|--0--0----0-0-0-----0-|--0--0----0-0-0------0-|
|--0--0----0-0-0-----0-|--0--0----0-0-0------0-|


Bb5
E E H E E E E Q Q Q
|-15-13----------15-13-|-15-13------12---13---|
|-------15-------------|-------15-------------|
|----------------------|----------------------|
|----------------------|----------------------|
|----------------------|----------------------|
|----------------------|----------------------|
|
| E E H E E E E Q Q Q
|-18-17----------18-17-|-18-17------15---17---|
|-------18-------------|-------18-------------|
|----------------------|----------------------|
|----------------------|----------------------|
|----------------------|----------------------|
|----------------------|----------------------|
|
| E Q E E Q E E Q E E Q E
|----------------------|----------------------|
|----------------------|----------------------|
|----------------------|----------------------|
|--8--8----8-8-8-----8-|--8--8----8--8-8----8-|
|--8--8----8-8-8-----8-|--8--8----8--8-8----8-|
|--8--8----8-8-8-----8-|--8--8----8--8-8----8-|


G5 F5
Q Q Q Q Q Q Q Q
|-15-------------------15----|-13--------------------13----|
|--------15------------------|---------13------------------|
|--------------15------------|---------------12------------|
|----------------------------|-----------------------------|
|----------------------------|-----------------------------|
|----------------------------|-----------------------------|
|
| Q Q Q Q Q Q Q Q
|-18-----15------------18----|-17--------------------17----|
|--------------15------------|---------18------------------|
|----------------------------|---------------17------------|
|----------------------------|-----------------------------|
|----------------------------|-----------------------------|
|----------------------------|-----------------------------|
|
| PM| PM----| PM------| PM----| PM
| E E E E E E E E E E E E E E E E
|----------------------------|-----------------------------|
|----------------------------|-----------------------------|
|----------------------------|-----

Like us on Facebook.....
-> Loading Time :0.0296 sec