Beautiful Eyes Chords & Lyrics by Taylor Swift

Beautiful Eyes

guitar chords lyrics

Taylor Swift

Album : Love Story taylor swift love story PlayStop


This is one of my fav songs (a bit rushed though)taylor swift all the way! :)
Email:nicky_2793@hotmail.com
Taylor Swift - Beautiful eyes
Album: Beautiful eyes EP

Capo on 1st

G D Em C or G D Em7 Cadd9
e|-3---2---0---0-| e|-3----2----3----3-|
B|-3---3---0---1-| B|-3----3----3----3-|

G|-0---2---0---0-| G|-0----2----0----0-|
D|-0---0---2---2-| D|-0----0----2----2-|
A|-2---x---2---3-| A|-2----x----2----3-|
E|-3---x---0---x-| E|-3----x----0----x-|


Intro:
e|------------------------------------------------------------------
B|-33-2-3-2-5--3-7--5--3-----------------------------------------x2
G|------------------------------------------------------------------
D|------------------------------------------------------------------
A|------------------------------------------------------------------
E|------------------------------------------------------------------

Verse 1

D A Em G D A Em G
Your beautiful eyes stare right into my .. eyes
D A Em G D
and sometimes i think of you late at night
A Em G
i dont know why
G D A G
I wanna be somewhere where you are
A
i wanna be where. . .

CHORUS:

G D A
your here your eyes are looking into mine
Em G A
so baby make me fly
G D A
my heart has never felt this way before
Em
i'm looking through your
C A
i'm looking through your eyes

D,A,Em, G X2

Verse 2

D A Em
i wake up i'm alive
G D A Em G
and only a little while, i cry
D A Em
cuz you're my lullaby
G D
so baby come hold me tight
A Em
cuz i, i
G D A G
i wanna be everything you need
A
i wanna be where

CHORUS:

G D A
your here your eyes are looking into mine
Em G A
so baby make me fly
G D A
my heart has never felt this way before
Em
i'm looking through your
C A
i'm looking through your eyes


D A Em G X2

BRIDGE
D A Em G D A Em G
just as long as your mine i'll be your everything tonite
D A Em G
let me love you kiss you baby let me miss you
D
let me see your
A
dream about
Em
dream about
G D A Em G
dream about your eyes
D A Em
eyes eyes eyes
G
beautiful eyes


Like us on Facebook.....
-> Loading Time :0.0082 sec