Beast and the Harlot Tabs & Lyrics by Avenged Sevenfold

Beast and the Harlot

guitar tabs lyrics

Avenged Sevenfold

Album : Beast and the Harlot metal PlayStop


----------------------------------------------------------------------------
Beast and the Harlot - Avenged Sevenfold
----------------------------------------------------------------------------

I copied this tab from my 'Beast and The Harlot' Guitar Pro tab that everyone loves. So
those unable to view the Guitar Pro version are able to view my tab.

The legend is at the bottom of the page. Thank you!

Guitar I - (D A D G B E)

Guitar II - (D A D G B E)

Q E E E E Q E Q. E E E Q E
E||---------------------------|--------------------------|
B||---------------------------|--------------------------|
G||---------------------------|--7------7--7--7--7----7--|
D||--4----4--4--4--4--4----4--|--7------7--7--7--7----7--|
A||--4----4--4--4--4--4----4--|--5------5--5--5--5----5--|
D||--4----4--4--4--4--4----4--|--------------------------|


Q. E E E Q E Q. E E E E S S S S E S S S S
--------------------------|------------------|------------------------|
--------------------------|------------------|------------------------|
--6------6--6--6--6----6--|--5------5--5--5--|------------------------|
--6------6--6--6--6----6--|--5------5--5--5--|--3--3-3-3-3-3--3-3-3-3-|
--4------4--4--4--4----4--|--3------3--3--3--|--3--3-3-3-3-3--3-3-3-3-|
--------------------------|------------------|--3--3-3-3-3-3--3-3-3-3-|


S S S S S S E E E E S S S S E S S S S H.
-----------------------|------------------------|---------------|
-----------------------|------------------------|---------------|
--6-6-6-6-6-6-6--6--6--|--3--3-3-3-3-3--3-3-3-3-|--2------------|
--6-6-6-6-6-6-6--6--6--|--3--3-3-3-3-3--3-3-3-3-|--2------------|
--4-4-4-4-4-4-4--4--4--|--1--1-1-1-1-1--1-1-1-1-|--0------------|
-----------------------|------------------------|---------------|


H. W W W
---------------|-------------------|-------------------|-------------------|
---------------|-------------------|-------------------|-------------------|
--L------------|-------------------|-------------------|-------------------|
--L------------|--0----------------|--L----------------|--L----------------|
--L------------|--0----------------|--L----------------|--L----------------|
---------------|--0----------------|--L----------------|--L----------------|


W W W W
-------------------|-------------------|-------------------|---------------|
-------------------|-------------------|-------------------|---------------|
-------------------|-------------------|-------------------|---------------|
--L----------------|--0----------------|--L----------------|--L------------|
--L----------------|--0----------------|--L----------------|--L------------|
--L----------------|--0----------------|--L----------------|--L------------|


W W W W
-------------------|-------------------|-------------------|---------------|
-------------------|-------------------|-------------------|---------------|
-------------------|-------------------|-------------------|---------------|
--L----------------|--L----------------|--L----------------|--L------------|
--L----------------|--L----------------|--L----------------|--L------------|
--L----------------|--L----------------|--L----------------|--L------------|


PM PM PM PM PM PM PM PM PM PM PM PM
W S S S S E S S S S E S S S S
-------------------|--------------------------------------------|
-------------------|--------------------------------------------|
-------------------|--------------------------------------------|
--L----------------|--------------3--------------5--------------|
--L----------------|--------------3--------------5--------------|
--L----------------|--0--0--0--0--3--0--0--0--0--5--0--0--0--0--|


PM PM PM PM PM PM PM PM
E S S S S E S S S S E E
--------------------------------------|
--------------------------------------|
--------------------------------------|
--6--------------5--------------3--5--|
--6--------------5--------------3--5--|
--6--0--0--0--0--5--0--0--0--0--3--5--|


PM PM PM PM PM PM PM PM PM PM
S S S S E S S S S E S S E
-----------------------------------------|
-----------------------------------------|
-----------------------------------------|
--------------3--------------5--------6--|
--------------3--------------5--------6--|
--0--0--0--0--3--0--0--0--0--5--0--0--6--|


PM PM PM PM PM PM PM PM PM PM
S S S S E S S S S E S S E
-----------------------------------------|
-----------------------------------------|
-----------------------------------------|
--------------3--------------5--------6--|
--------------3--------------5--------6--|
--0--0--0--0--3--0--0--0--0--5--0--0--6--|


PM PM PM PM PM PM PM PM PM PM PM PM
S S S S E S S S S E S S S S
--------------------------------------------|
--------------------------------------------|
--------------------------------------------|
--------------3--------------5--------------|
--------------3--------------5--------------|
--0--0--0--0--3--0--0--0--0--5--0--0--0--0--|


PM PM PM PM PM PM PM PM
E S S S S E S S S S E E
--------------------------------------|
--------------------------------------|
--------------------------------------|
--6--------------5--------------3--5--|
--6--------------5--------------3--5--|
--6--0--0--0--0--5--0--0--0--0--3--5--|


PM PM PM PM PM PM PM PM PM PM
S S S S E S S S S E S S E
-----------------------------------------|
-----------------------------------------|
-----------------------------------------|
--------------3--------------5--------6--|
--------------3--------------5--------6--|
--0--0--0--0--3--0--0--0--0--5--0--0--6--|


PM PM PM PM PM PM PM PM PM PM
S S S S E S S S S E S S E
-----------------------------------------|
-----------------------------------------|
-----------------------------------------|
--------------3--------------5--------6--|
--------------3--------------5--------6--|
--0--0--0--0--3--0--0--0--0--5--0--0--6--|


PM PM PM PM PM PM PM PM PM PM PM PM
S S S S E S S S S E S S S S
|---------------------------------------------|
|---------------------------------------------|
|*--------------------------------------------|
|*--------------3--------------5--------------|
|---------------3--------------5--------------|
|---0--0--0--0--3--0--0--0--0--5--0--0--0--0--|


PM PM PM PM PM PM PM PM
E S S S S E S S S S E E
--------------------------------------|
--------------------------------------|
--------------------------------------|
--6--------------5--------------3--5--|
--6--------------5--------------3--5--|
--6--0--0--0--0--5--0--0--0--0--3--5--|


PM PM PM PM PM PM PM PM PM PM
S S S S E S S S S E S S E
-----------------------------------------|
-----------------------------------------|
-----------------------------------------|
--------------3--------------5--------6--|
--------------3--------------5--------6--|
--0--0--0--0--3--0--0--0--0--5--0--0--6--|


PM PM PM PM PM PM PM PM PM PM
S S S S E S S S S E S S E
-----------------------------------------|
-----------------------------------------|
-----------------------------------------|
--------------3--------------5--------6--|
--------------3--------------5--------6--|
--0--0--0--0--3--0--0--0--0--5--0--0--6--|


PM PM PM PM PM PM PM PM PM PM PM PM
S S S S E S S S S E S S S S
--------------------------------------------|
--------------------------------------------|
--------------------------------------------|
--------------3--------------5--------------|
--------------3--------------5--------------|
--0--0--0--0--3--0--0--0--0--5--0--0--0--0--|


PM PM PM PM PM PM PM PM
E S S S S E S S S S E E
--------------------------------------|
--------------------------------------|
--------------------------------------|
--6--------------5--------------3--5--|
--6--------------5--------------3--5--|
--6--0--0--0--0--5--0--0--0--0--3--5--|


PM PM PM PM PM PM PM PM PM PM
S S S S E S S S S E S S E
-----------------------------------------|
-----------------------------------------|
-----------------------------------------|
--------------3--------------5--------6--|
--------------3--------------5--------6--|
--0--0--0--0--3--0--0--0--0--5--0--0--6--|


PM PM PM PM PM PM PM PM PM PM
S S S S E S S S S E S S E H. Q
-----------------------------------------|---------------------|
-----------------------------------------|---------------------|
-----------------------------------------|---------------------|
--------------3--------------5--------3--|--8------------8\----|
--------------3--------------5--------3--|--8------------8\----|
--0--0--0--0--3--0--0--0--0--5--0--0--3--|--8------------8\----|


Q Q Q Q Q Q Q Q E E E E E E E E
-----------------------||------------------------|-------------------------|
-----------------------||------------------------|-------------------------|
----------------------*||------------------------|-------------------------|
--5----6----7----8----*||--7----8----9----10\----|--3--3--3--3--3--3--3--3-|
--5----6----7----8-----||--7----8----9----10\----|--3--3--3--3--3--3--3--3-|
--5----6----7----8-----||--7----8----9----10\----|--3--3--3--3--3--3--3--3-|


E E E E E E E E E E E E E E E E
----------------------------------|--------------------------|
----------------------------------|--------------------------|
----------------------------------|--------------------------|
--10--10--10--10--10--10--10--10--|--8--8--8--8--8--8--8--8--|
--10--10--10--10--10--10--10--10--|--8--8--8--8--8--8--8--8--|
--10--10--10--10--10--10--10--10--|--8--8--8--8--8--8--8--8--|


E E E E E E E E E E E E E E E E
--------------------------|--------------------------|
--------------------------|--------------------------|
--------------------------|--------------------------|
--8--8--8--8--8--8--8--8--|--3--3--3--3--3--3--3--3--|
--8--8--8--8--8--8--8--8--|--3--3--3--3--3--3--3--3--|
--8--8--8--8--8--8--8--8--|--3--3--3--3--3--3--3--3--|


E E E E E E E E E E E E E E E E
----------------------------------|--------------------------|
----------------------------------|--------------------------|
----------------------------------|--------------------------|
--10--10--10--10--10--10--10--10--|--8--8--8--8--8--8--8--8--|
--10--10--10--10--10--10--10--10--|--8--8--8--8--8--8--8--8--|
--10--10--10--10--10--10--10--10--|--8--8--8--8--8--8--8--8--|


E E E E E E E E E E E E E E E E
--------------------------|--------------------------|
--------------------------|--------------------------|
--------------------------|--------------------------|
--8--8--8--8--8--8--8--8--|--5--5--5--5--5--5--5--5--|
--8--8--8--8--8--8--8--8--|--5--5--5--5--5--5--5--5--|
--8--8--8--8--8--8--8--8--|--5--5--5--5--5--5--5--5--|


E E E E E E E E E E E E E E E E
--------------------------|----------------------------------|
--------------------------|----------------------------------|
--------------------------|----------------------------------|
--3--3--3--3--3--3--3--3--|--10--10--10--10--10--10--10--10--|
--3--3--3--3--3--3--3--3--|--10--10--10--10--10--10--10--10--|
--3--3--3--3--3--3--3--3--|--10--10--10--10--10--10--10--10--|


E E E E E E E E E E E E E E E E
--------------------------|---------------------------|
--------------------------|---------------------------|
--------------------------|--10-----------9-----------|
--8--8--8--8--8--8--8--8--|--10--8--8--8--9--8--8--8--|
--8--8--8--8--8--8--8--8--|---8--8--8--8--7--8--8--8--|
--8--8--8--8--8--8--8--8--|------8--8--8-----8--8--8--|


E E E E E E E E E E E E E E E E
----------------------------|------------------------------|
----------------------------|------------------------------|
----------------------------|------------------------------|
--12--8--8--8--10--8--7--8--|--7--7--7--7--11--11--11--11--|
--12--8--8--8--10--8--7--8--|--7--7--7--7--12--12--12--12--|
--12--8--8--8--10--8--7--8--|--7--7--7--7--11--11--11--11--|


PM PM PM PM PM PM PM PM PM PM PM PM
E E E E E E E E S S S S E S S S S E S S S S
---------------------------------|-----------------------------------------|
---------------------------------|-----------------------------------------|
---------------------------------|-----------------------------------------|
--11--11--11--11--11--11--11--11-|--------------3--------------5-----------|
--12--12--12--12--12--12--12--12-|--------------3--------------5-----------|
--11--11--11--11--11--11--11--11-|--0--0--0--0--3--0--0--0--0--5--0--0--0-0|


PM PM PM PM PM PM PM PM
E S S S S E S S S S E E
--------------------------------------|
--------------------------------------|
--------------------------------------|
--6--------------5--------------3--5--|
--6--------------5--------------3--5--|
--6--0--0--0--0--5--0--0--0--0--3--5--|


PM PM PM PM PM PM PM PM PM PM
S S S S E S S S S E S S E
-----------------------------------------|
-----------------------------------------|
-----------------------------------------|
--------------3--------------5--------6--|
--------------3--------------5--------6--|
--0--0--0--0--3--0--0--0--0--5--0--0--6--|


PM PM PM PM PM PM PM PM PM
S S S E E S S S S E S S S H. Q
----------------------------------------|---------------------|
----------------------------------------|---------------------|
----------------------------------------|---------------------|
--------------3--------------3--------3-|--8------------8\----|
--------------3--------------3--------3-|--8------------8\----|
--0--0--0--0--3--0--0--0--0--3--0--0--3-|--8------------8\----|


Q Q Q Q Q Q Q Q E E E E E E E E
----------------------|------------------------|--------------------------|
----------------------|------------------------|--------------------------|
----------------------|------------------------|--------------------------|
--5----6----7----8----|--7----8----9----10\----|--3--3--3--3--3--3--3--3--|
--5----6----7----8----|--7----8----9----10\----|--3--3--3--3--3--3--3--3--|
--5----6----7----8----|--7----8----9----10\----|--3--3--3--3--3--3--3--3--|


E E E E E E E E E E E E E E E E
----------------------------------|--------------------------|
----------------------------------|--------------------------|
----------------------------------|--------------------------|
--10--10--10--10--10--10--10--10--|--8--8--8--8--8--8--8--8--|
--10--10--10--10--10--10--10--10--|--8--8--8--8--8--8--8--8--|
--10--10--10--10--10--10--10--10--|--8--8--8--8--8--8--8--8--|


E E E E E E E E E E E E E E E E
--------------------------|--------------------------|
--------------------------|--------------------------|
--------------------------|--------------------------|
--8--8--8--8--8--8--8--8--|--3--3--3--3--3--3--3--3--|
--8--8--8--8--8--8--8--8--|--3--3--3--3--3--3--3--3--|
--8--8--8--8--8--8--8--8--|--3--3--3--3--3--3--3--3--|


E E E E E E E E E E E E E E E E
----------------------------------|--------------------------|
----------------------------------|--------------------------|
----------------------------------|--------------------------|
--10--10--10--10--10--10--10--10--|--8--8--8--8--8--8--8--8--|
--10--10--10--10--10--10--10--10--|--8--8--8--8--8--8--8--8--|
--10--10--10--10--10--10--10--10--|--8--8--8--8--8--8--8--8--|


E E E E E E E E E E E E E E E E
--------------------------|--------------------------|
--------------------------|--------------------------|
--------------------------|--------------------------|
--8--8--8--8--8--8--8--8--|--5--5--5--5--5--5--5--5--|
--8--8--8--8--8--8--8--8--|--5--5--5--5--5--5--5--5--|
--8--8--8--8--8--8--8--8--|--5--5--5--5--5--5--5--5--|


E E E E E E E E E E E E E E E E
--------------------------|----------------------------------|
--------------------------|----------------------------------|
--------------------------|----------------------------------|
--3--3--3--3--3--3--3--3--|--10--10--10--10--10--10--10--10--|
--3--3--3--3--3--3--3--3--|--10--10--10--10--10--10--10--10--|
--3--3--3--3--3--3--3--3--|--10--10--10--10--10--10--10--10--|


E E E E E E E E E E E E E E E E
--------------------------|--------------------------|
--------------------------|--------------------------|
--------------------------|--------------------------|
--8--8--8--8--8--8--8--8--|--8--8--8--8--8--8--8--8--|
--8--8--8--8--8--8--8--8--|--8--8--8--8--8--8--8--8--|
--8--8--8--8--8--8--8--8--|--8--8--8--8--8--8--8--8--|


E E E E E E E E E E E E E E E E
--------------------------|--------------------------|
--------------------------|--------------------------|
--------------------------|--------------------------|
--8--8--8--8--8--8--8--8--|--7--7--7--7--7--7--7--7--|
--8--8--8--8--8--8--8--8--|--7--7--7--7--7--7--7--7--|
--8--8--8--8--8--8--8--8--|--7--7--7--7--7--7--7--7--|


PM PM PM PM PM PM PM PM PM PM PM PM
E E E E E E E E S S S S E S S S S E S S S S
---------------------------------|-----------------------------------------|
---------------------------------|-----------------------------------------|
---------------------------------|-----------------------------------------|
--11--11--11--11--11--11--11--11-|-------------3--------------5------------|
--12--12--12--12--10--10--10--10-|-------------3--------------5------------|
--11--11--11--11--11--11--11--11-|-0--0--0--0--3--0--0--0--0--5--0--0--0-0-|


PM PM PM PM PM PM PM PM
E S S S S E S S S S E E
--------------------------------------|
--------------------------------------|
--------------------------------------|
--6--------------5--------------3--5--|
--6--------------5--------------3--5--|
--6--0--0--0--0--5--0--0--0--0--3--5--|


PM PM PM PM PM PM PM PM PM PM
S S S S E S S S S E S S E
-----------------------------------------|
-----------------------------------------|
-----------------------------------------|
--------------3--------------5--------6--|
--------------3--------------5--------6--|
--0--0--0--0--3--0--0--0--0--5--0--0--6--|


PM PM PM PM PM PM PM PM PM PM
S S S S E S S S S E S S E
-----------------------------------------|
-----------------------------------------|
-----------------------------------------|
--------------3--------------5--------6--|
--------------3--------------5--------6--|
--0--0--0--0--3--0--0--0--0--5--0--0--6--|


PM PM PM PM PM PM PM PM PM PM PM PM
S S S S E S S S S E S S S S
--------------------------------------------|
--------------------------------------------|
--------------------------------------------|
--------------3--------------5--------------|
--------------3--------------5--------------|
--0--0--0--0--3--0--0--0--0--5--0--0--0--0--|


PM PM PM PM PM PM PM PM
E S S S S E S S S S E E
--------------------------------------|
--------------------------------------|
--------------------------------------|
--6--------------5--------------3--5--|
--6--------------5--------------3--5--|
--6--0--0--0--0--5--0--0--0--0--3--5--|


PM PM PM PM PM PM PM PM PM PM
S S S S E S S S S E S S E
-----------------------------------------|
-----------------------------------------|
-----------------------------------------|
--------------3--------------5--------6--|
--------------3--------------5--------6--|
--0--0--0--0--3--0--0--0--0--5--0--0--6--|


PM PM PM PM PM PM PM PM PM PM
S S S S E S S S S E S S E H. Q
-----------------------------------------|---------------------|
-----------------------------------------|---------------------|
-----------------------------------------|---------------------|
--------------3--------------5--------3--|--8------------8\----|
--------------3--------------5--------3--|--8------------8\----|
--0--0--0--0--3--0--0--0--0--5--0--0--3--|--8------------8\----|


PM PM PM PM PM PM PM PM PM PM PM PM
Q Q Q Q S S S S E S S S S E S S S S
----------------------|--------------------------------------------|
----------------------|--------------------------------------------|
----------------------|--------------------------------------------|
--5----6----7----8----|--------------3--------------5--------------|
--5----6----7----8----|--------------3--------------5--------------|
--5----6----7----8----|--0--0--0--0--3--0--0--0--0--5--0--0--0--0--|


PM PM PM PM PM PM PM PM
E S S S S E S S S S E E
--------------------------------------|
--------------------------------------|
--------------------------------------|
--6--------------5--------------3--5--|
--6--------------5--------------3--5--|
--6--0--0--0--0--5--0--0--0--0--3--5--|


PM PM PM PM PM PM PM PM PM PM
S S S S E S S S S E S S E
-----------------------------------------|
-----------------------------------------|
-----------------------------------------|
--------------3--------------5--------6--|
--------------3--------------5--------6--|
--0--0--0--0--3--0--0--0--0--5--0--0--6--|


PM PM PM PM PM PM PM PM PM PM
S S S S E S S S S E S S E
-----------------------------------------|
-----------------------------------------|
-----------------------------------------|
--------------3--------------5--------6--|
--------------3--------------5--------6--|
--0--0--0--0--3--0--0--0--0--5--0--0--6--|


PM PM PM PM PM PM PM PM PM PM PM PM
S S S S E S S S S E S S S S
--------------------------------------------|
--------------------------------------------|
--------------------------------------------|
--------------3--------------5--------------|
--------------3--------------5--------------|
--0--0--0--0--3--0--0--0--0--5--0--0--0--0--|


PM PM PM PM PM PM PM PM
E S S S S E S S S S E E
--------------------------------------|
--------------------------------------|
--------------------------------------|
--6--------------5--------------3--5--|
--6--------------5--------------3--5--|
--6--0--0--0--0--5--0--0--0--0--3--5--|


PM PM PM PM PM PM PM PM PM PM
S S S S E S S S S E S S E
-----------------------------------------|
-----------------------------------------|
-----------------------------------------|
--------------3--------------5--------6--|
--------------3--------------5--------6--|
--0--0--0--0--3--0--0--0--0--5--0--0--6--|


PM PM PM PM PM PM PM PM PM PM
S S S S E S S S S E S S E H. Q
-----------------------------------------|---------------------|
-----------------------------------------|---------------------|
-----------------------------------------|---------------------|
--------------3--------------5--------3--|--8------------8\----|
--------------3--------------5--------3--|--8------------8\----|
--0--0--0--0--3--0--0--0--0--5--0--0--3--|--8------------8\----|


Q Q Q Q Q Q Q Q E E E E E E E E
----------------------|------------------------|--------------------------|
----------------------|------------------------|--------------------------|
----------------------|------------------------|--------------------------|
--5----6----7----8----|--7----8----9----10\----|--3--3--3--3--3--3--3--3--|
--5----6----7----8----|--7----8----9----10\----|--3--3--3--3--3--3--3--3--|
--5----6----7----8----|--7----8----9----10\----|--3--3--3--3--3--3--3--3--|


E E E E E E E E E E E E E E E E
----------------------------------|--------------------------|
----------------------------------|--------------------------|
----------------------------------|--------------------------|
--10--10--10--10--10--10--10--10--|--8--8--8--8--8--8--8--8--|
--10--10--10--10--10--10--10--10--|--8--8--8--8--8--8--8--8--|
--10--10--10--10--10--10--10--10--|--8--8--8--8--8--8--8--8--|


E E E E E E E E E E E E E E E E
--------------------------|--------------------------|
--------------------------|--------------------------|
--------------------------|--------------------------|
--8--8--8--8--8--8--8--8--|--3--3--3--3--3--3--3--3--|
--8--8--8--8--8--8--8--8--|--3--3--3--3--3--3--3--3--|
--8--8--8--8--8--8--8--8--|--3--3--3--3--3--3--3--3--|


E E E E E E E E E E E E E E E E
----------------------------------|--------------------------|
----------------------------------|--------------------------|
----------------------------------|--------------------------|
--10--10--10--10--10--10--10--10--|--8--8--8--8--8--8--8--8--|
--10--10--10--10--10--10--10--10--|--8--8--8--8--8--8--8--8--|
--10--10--10--10--10--10--10--10--|--8--8--8--8--8--8--8--8--|


E E E E E E E E E E E E E E E E
--------------------------|--------------------------|
--------------------------|--------------------------|
--------------------------|--------------------------|
--8--8--8--8--8--8--8--8--|--5--5--5--5--5--5--5--5--|
--8--8--8--8--8--8--8--8--|--5--5--5--5--5--5--5--5--|
--8--8--8--8--8--8--8--8--|--5--5--5--5--5--5--5--5--|


E E E E E E E E E E E E E E E E
--------------------------|----------------------------------|
--------------------------|----------------------------------|
--------------------------|----------------------------------|
--3--3--3--3--3--3--3--3--|--10--10--10--10--10--10--10--10--|
--3--3--3--3--3--3--3--3--|--10--10--10--10--10--10--10--10--|
--3--3--3--3--3--3--3--3--|--10--10--10--10--10--10--10--10--|


E E E E E E E E E E E E E E E E
--------------------------|---------------------------|
--------------------------|---------------------------|
--------------------------|--10-----------9-----------|
--8--8--8--8--8--8--8--8--|--10--8--8--8--9--8--8--8--|
--8--8--8--8--8--8--8--8--|---8--8--8--8--7--8--8--8--|
--8--8--8--8--8--8--8--8--|------8--8--8-----8--8--8--|


E E E E E E E E E E E E E E E E
----------------------------|------------------------------|
----------------------------|------------------------------|
----------------------------|------------------------------|
--12--8--8--8--10--8--7--8--|--7--7--7--7--11--11--11--11--|
--12--8--8--8--10--8--7--8--|--7--7--7--7--12--12--12--12--|
--12--8--8--8--10--8--7--8--|--7--7--7--7--11--11--11--11--|


E E E E E E E E W W
----------------------------------|-------------------|-------------------|
----------------------------------|-------------------|-------------------|
----------------------------------|-------------------|-------------------|
--11--11--11--11--11--11--11--11--|--0----------------|--L----------------|
--12--12--12--12--12--12--12--12--|--0----------------|--L----------------|
--11--11--11--11--11--11--11--11--|--0----------------|--L----------------|


W W W W
-------------------|-------------------|-------------------|---------------|
-------------------|-------------------|-------------------|---------------|
-------------------|-------------------|-------------------|---------------|
--0----------------|--L----------------|--0----------------|--L------------|
--0----------------|--L----------------|--0----------------|--L------------|
--0----------------|--L----------------|--0----------------|--L------------|


W W
-------------------|-------------------|
-------------------|-------------------|
-------------------|-------------------|
--0----------------|--L----------------|
--0----------------|--L----------------|
--0----------------|--L----------------|


PM PM PM PM PM PM PM PM PM PM PM PM
S S S S E S S S S E S S S S
--------------------------------------------|
--------------------------------------------|
--------------------------------------------|
--------------3--------------5--------------|
--------------3--------------5--------------|
--0--0--0--0--3--0--0--0--0--5--0--0--0--0--|


PM PM PM PM PM PM PM PM
E S S S S E S S S S E E
--------------------------------------|
--------------------------------------|
--------------------------------------|
--6--------------5--------------3--5--|
--6--------------5--------------3--5--|
--6--0--0--0--0--5--0--0--0--0--3--5--|


PM PM PM PM PM PM PM PM PM PM PM PM
S S S S E S S S S E S S S S
--------------------------------------------|
--------------------------------------------|
--------------------------------------------|
--------------3--------------5--------------|
--------------3--------------5--------------|
--0--0--0--0--3--0--0--0--0--5--0--0--0--0--|


PM PM PM PM PM PM PM PM
E S S S S E S S S S E E
--------------------------------------|
--------------------------------------|
--------------------------------------|
--6--------------5--------------3--5--|
--6--------------5--------------3--5--|
--6--0--0--0--0--5--0--0--0--0--3--5--|


PM PM PM PM PM PM PM PM PM PM PM PM
S S S S E S S S S E S S S S
--------------------------------------------|
--------------------------------------------|
--------------------------------------------|
--------------3--------------5--------------|
--------------3--------------5--------------|
--0--0--0--0--3--0--0--0--0--5--0--0--0--0--|


PM PM PM PM PM PM PM PM
E S S S S E S S S S E E
--------------------------------------|
--------------------------------------|
--------------------------------------|
--6--------------5--------------3--5--|
--6--------------5--------------3--5--|
--6--0--0--0--0--5--0--0--0--0--3--5--|


PM PM PM PM PM PM PM PM PM PM PM PM
S S S S E S S S S E S S S S
--------------------------------------------|
--------------------------------------------|
--------------------------------------------|
--------------3--------------5--------------|
--------------3--------------5--------------|
--0--0--0--0--3--0--0--0--0--5--0--0--0--0--|


PM PM PM PM PM PM PM PM
E S S S S E S S S S E E E E E E E E E E
--------------------------------------|--------------------------|
--------------------------------------|--------------------------|
--------------------------------------|--7--5--------------------|
--6--------------5--------------3--5--|--7--5--3--5--6--5--3--0--|
--6--------------5--------------3--5--|--5--3--3--5--6--5--3--0--|
--6--0--0--0--0--5--0--0--0--0--3--5--|--------3--5--6--5--3--0--|


E E E E E E Q E E E E E E E E E E E E E E Q
-------------------------|--------------------------|----------------------|
-------------------------|--------------------------|----------------------|
-------------------------|--7--5--------------------|----------------------|
--0--3--5--6--5--3--0----|--7--5--3--5--6--5--3--0--|--0--3--5--6--5--3--0-|
--0--3--5--6--5--3--0----|--5--3--3--5--6--5--3--0--|--0--3--5--6--5--3--0-|
--0--3--5--6--5--3--0----|--------3--5--6--5--3--0--|--0--3--5--6--5--3--0-|


E E E E E E E E E E E E E E Q H. Q
|---------------------------|--------------------------||------------------|
|---------------------------|--------------------------||------------------|
|*--7--5--------------------|-------------------------*||------------------|
|*--7--5--3--5--6--5--3--0--|--0--3--5--6--5--3--0----*||--8------------8\-|
|---5--3--3--5--6--5--3--0--|--0--3--5--6--5--3--0-----||--8------------8\-|
|---------3--5--6--5--3--0--|--0--3--5--6--5--3--0-----||--8------------8\-|


Q Q Q Q Q Q Q Q E E E E E E E E
----------------------|------------------------|--------------------------|
----------------------|------------------------|--------------------------|
----------------------|------------------------|--------------------------|
--5----6----7----8----|--7----8----9----10\----|--3--3--3--3--3--3--3--3--|
--5----6----7----8----|--7----8----9----10\----|--3--3--3--3--3--3--3--3--|
--5----6----7----8----|--7----8----9----10\----|--3--3--3--3--3--3--3--3--|


E E E E E E E E E E E E E E E E
----------------------------------|--------------------------|
----------------------------------|--------------------------|
----------------------------------|--------------------------|
--10--10--10--10--10--10--10--10--|--8--8--8--8--8--8--8--8--|
--10--10--10--10--10--10--10--10--|--8--8--8--8--8--8--8--8--|
--10--10--10--10--10--10--10--10--|--8--8--8--8--8--8--8--8--|


E E E E E E E E E E E E E E E E
--------------------------|--------------------------|
--------------------------|--------------------------|
--------------------------|--------------------------|
--8--8--8--8--8--8--8--8--|--3--3--3--3--3--3--3--3--|
--8--8--8--8--8--8--8--8--|--3--3--3--3--3--3--3--3--|
--8--8--8--8--8--8--8--8--|--3--3--3--3--3--3--3--3--|


E E E E E E E E E E E E E E E E
----------------------------------|--------------------------|
----------------------------------|--------------------------|
----------------------------------|--------------------------|
--10--10--10--10--10--10--10--10--|--8--8--8--8--8--8--8--8--|
--10--10--10--10--10--10--10--10--|--8--8--8--8--8--8--8--8--|
--10--10--10--10--10--10--10--10--|--8--8--8--8--8--8--8--8--|


E E E E E E E E E E E E E E E E
--------------------------|--------------------------|
--------------------------|--------------------------|
--------------------------|--------------------------|
--8--8--8--8--8--8--8--8--|--5--5--5--5--5--5--5--5--|
--8--8--8--8--8--8--8--8--|--5--5--5--5--5--5--5--5--|
--8--8--8--8--8--8--8--8--|--5--5--5--5--5--5--5--5--|


E E E E E E E E E E E E E E E E
--------------------------|----------------------------------|
--------------------------|----------------------------------|
--------------------------|----------------------------------|
--3--3--3--3--3--3--3--3--|--10--10--10--10--10--10--10--10--|
--3--3--3--3--3--3--3--3--|--10--10--10--10--10--10--10--10--|
--3--3--3--3--3--3--3--3--|--10--10--10--10--10--10--10--10--|


E E E E E E E E E E E E E E E E
--------------------------|---------------------------|
--------------------------|---------------------------|
--------------------------|--10-----------9-----------|
--8--8--8--8--8--8--8--8--|--10--8--8--8--9--8--8--8--|
--8--8--8--8--8--8--8--8--|---8--8--8--8--7--8--8--8--|
--8--8--8--8--8--8--8--8--|------8--8--8-----8--8--8--|


E E E E E E E E E E E E E E E E
----------------------------|------------------------------|
----------------------------|------------------------------|
----------------------------|------------------------------|
--12--8--8--8--10--8--7--8--|--7--7--7--7--11--11--11--11--|
--12--8--8--8--10--8--7--8--|--7--7--7--7--12--12--12--12--|
--12--8--8--8--10--8--7--8--|--7--7--7--7--11--11--11--11--|


E E E E E E E E E E E E E E E E
----------------------------------|--------------------------|
----------------------------------|--------------------------|
----------------------------------|--------------------------|
--11--11--11--11--11--11--11--11--|--7--7--7--7--7--7--7--7--|
--12--12--12--12--12--12--12--12--|--7--7--7--7--7--7--7--7--|
--11--11--11--11--11--11--11--11--|--7--7--7--7--7--7--7--7--|


E E E E E E E E E E E E E E E E
--------------------------|--------------------------|
--------------------------|--------------------------|
--9--9--9--9--9--9--9--9--|--7--7--7--7--7--7--7--7--|
--9--9--9--9--9--9--9--9--|--7--7--7--7--7--7--7--7--|
--7--7--7--7--7--7--7--7--|--5--5--5--5--5--5--5--5--|
--------------------------|--------------------------|


E E E E E E E E E E E E E E E E
--------------------------|--------------------------|
--------------------------|--------------------------|
--7--7--7--7--7--7--7--7--|--------------------------|
--7--7--7--7--7--7--7--7--|--7--7--7--7--7--7--7--7--|
--5--5--5--5--5--5--5--5--|--7--7--7--7--7--7--7--7--|
--------------------------|--7--7--7--7--7--7--7--7--|


E E E E E E E E E E E E E E E E
--------------------------|--------------------------|
--------------------------|--------------------------|
--9--9--9--9--9--9--9--9--|--7--7--7--7--7--7--7--7--|
--9--9--9--9--9--9--9--9--|--7--7--7--7--7--7--7--7--|
--7--7--7--7--7--7--7--7--|--5--5--5--5--5--5--5--5--|
--------------------------|--------------------------|


E E E E E E E E E E E E E E E E
--------------------------|--------------------------|
--------------------------|--------------------------|
--7--7--7--7--7--7--7--7--|--------------------------|
--7--7--7--7--7--7--7--7--|--9--9--9--9--9--9--9--9--|
--5--5--5--5--5--5--5--5--|--9--9--9--9--9--9--9--9--|
--------------------------|--9--9--9--9--9--9--9--9--|


E E E E E E E E E E E E E E E E
--------------------------|--------------------------|
--------------------------|--------------------------|
--------------------------|--9--9--9--9--9--9--9--9--|
--7--7--7--7--7--7--7--7--|--9--9--9--9--9--9--9--9--|
--7--7--7--7--7--7--7--7--|--7--7--7--7--7--7--7--7--|
--7--7--7--7--7--7--7--7--|--------------------------|


E E E E E E E E E E E E E E E E
--------------------------|----------------------------|
--------------------------|----------------------------|
--7--7--7--7--7--7--7--7--|--14--7--7--7--13--7--7--7--|
--7--7--7--7--7--7--7--7--|--14--7--7--7--13--7--7--7--|
--5--5--5--5--5--5--5--5--|--12--5--5--5--11--5--5--5--|
--------------------------|----------------------------|


E E E E E E E E E E E E E E E E
---------------------------|------------------------------|
---------------------------|------------------------------|
--11--7--7--7--9--7--6--7--|--6--6--6--6--10--10--10--10--|
--11--7--7--7--9--7--6--7--|--6--6--6--6--11--11--11--11--|
---9--5--5--5--7--5--4--5--|--4--4--4--4---8---8---8---8--|
---------------------------|------------------------------|


E E E E E E E E Q E E E E Q E
----------------------------------|---------------------------|
----------------------------------|---------------------------|
--11--11--11--11--11--11--11--11--|---------------------------|
--10--10--10--10--10--10--10--10--|--4----4--4--4--4--4----4--|
---8---8---8---8---8---8---8---8--|--4----4--4--4--4--4----4--|
----------------------------------|--4----4--4--4--4--4----4--|


Q. E E E Q E Q. E E E Q E Q. E E E
--------------------------|--------------------------|------------------|
--------------------------|--------------------------|------------------|
--7------7--7--7--7----7--|--6------6--6--6--6----6--|--5------5--5--5--|
--7------7--7--7--7----7--|--6------6--6--6--6----6--|--5------5--5--5--|
--5------5--5--5--5----5--|--4------4--4--4--4----4--|--3------3--3--3--|
--------------------------|--------------------------|------------------|


E S S S S E S S S S S S S S S S E E E E S S S S E S S S S
------------------------|-----------------------|------------------------|
------------------------|-----------------------|------------------------|
------------------------|--6-6-6-6-6-6-6--6--6--|--3--3-3-3-3-3--3-3-3-3-|
--3--3-3-3-3-3--3-3-3-3-|--6-6-6-6-6-6-6--6--6--|--3--3-3-3-3-3--3-3-3-3-|
--3--3-3-3-3-3--3-3-3-3-|--4-4-4-4-4-4-4--4--4--|--1--1-1-1-1-1--1-1-1-1-|
--3--3-3-3-3-3--3-3-3-3-|-----------------------|------------------------|


H. H. H. H.
---------------|---------------|---------------|---------------||
---------------|---------------|---------------|---------------||
--2------------|--L------------|--L------------|--L------------||
--2------------|--L------------|--L------------|--L------------||
--0------------|--L------------|--L------------|--L------------||
---------------|---------------|---------------|---------------|| End.


Guitar II:


Q E E E E Q E Q. E E E Q E
E||------------------------------|-----------------------------|
B||--7~----7--6--7--9--10~----5--|--6~------6--5--6--8~----/6--|
G||------------------------------|-----------------------------|
D||------------------------------|-----------------------------|
A||------------------------------|-----------------------------|
D||------------------------------|-----------------------------|


Q. E E E Q E Q E E E E Q. Q.
-----------------------------|--------------------|--------------------|
--6~------6--5--6--8~----/6--|--6~----6--5--6--8--|--/9~------/9~------|
-----------------------------|--------------------|--------------------|
-----------------------------|--------------------|--------------------|
-----------------------------|--------------------|--------------------|
-----------------------------|--------------------|--------------------|


Q. E E E Q. Q. H.
-----------------------|----------------------|------------------|
--/11~------9--11--13--|--/14~------/14~------|--16br------------|
-----------------------|----------------------|------------------|
-----------------------|----------------------|------------------|
-----------------------|----------------------|------------------|
-----------------------|----------------------|------------------|


H. W W W
---------------|-------------------|-------------------|-------------------|
--L------------|-------------------|-------------------|-------------------|
---------------|-------------------|-------------------|-------------------|
---------------|--0----------------|--L----------------|--L----------------|
---------------|--0----------------|--L----------------|--L----------------|
---------------|--0----------------|--L----------------|--L----------------|


PM PM PM PM PM PM PM PM PM PM PM PM
W S S S S E S S S S E S S S S
-------------------|----------------------------------------------|
-------------------|----------------------------------------------|
-------------------|----------------------------------------------|
--L----------------|--0--0--0--0--15--0--0--0--0--17--0--0--0--0--|
--L----------------|----------------------------------------------|
--L----------------|----------------------------------------------|


PM PM PM PM PM PM PM PM
E S S S S E S S S S Q
----------------------------------------|
----------------------------------------|
----------------------------------------|
--18--0--0--0--0--17--0--0--0--0--15----|
----------------------------------------|
----------------------------------------|


PM PM PM PM PM PM PM PM PM PM PM PM
S S S S E S S S S E S S S S
----------------------------------------------|
----------------------------------------------|
----------------------------------------------|
--0--0--0--0--15--0--0--0--0--17--0--0--0--0--|
----------------------------------------------|
----------------------------------------------|


PM PM PM PM PM PM PM PM
E S S S S E S S S S Q
----------------------------------------|
----------------------------------------|
----------------------------------------|
--18--0--0--0--0--17--0--0--0--0--15----|
----------------------------------------|
----------------------------------------|


PM PM PM PM PM PM PM PM PM PM PM PM
S S S S E S S S S E S S S S
----------------------------------------------|
----------------------------------------------|
----------------------------------------------|
--0--0--0--0--15--0--0--0--0--17--0--0--0--0--|
----------------------------------------------|
----------------------------------------------|


PM PM PM PM PM PM PM PM
E S S S S E S S S S Q
----------------------------------------|
----------------------------------------|
----------------------------------------|
--18--0--0--0--0--17--0--0--0--0--15----|
----------------------------------------|
----------------------------------------|


PM PM PM PM PM PM PM PM PM PM PM PM
S S S S E S S S S E S S S S
----------------------------------------------|
----------------------------------------------|
----------------------------------------------|
--0--0--0--0--15--0--0--0--0--17--0--0--0--0--|
----------------------------------------------|
----------------------------------------------|


PM PM PM PM
E S S S S S S S S E S S S S W
------------------------------10S--13-10----13-|--10----------------|
---------------------------10------------13----|--------------------|
------------------12-10-13---------------------|--------------------|
--18--0--0--0--0-------------------------------|--------------------|
-----------------------------------------------|--------------------|
-----------------------------------------------|--------------------|

PM PM PM PM PM PM PM PM PM PM PM PM
S S S S E S S S S E S S S S
|---------------------------------------------|
|---------------------------------------------|
|*--------------------------------------------|
|*--------------3--------------5--------------|
|---------------3--------------5--------------|
|---0--0--0--0--3--0--0--0--0--5--0--0--0--0--|


PM PM PM PM PM PM PM PM
E S S S S E S S S S E E
--------------------------------------|
--------------------------------------|
--------------------------------------|
--6--------------5--------------3--5--|
--6--------------5--------------3--5--|
--6--0--0--0--0--5--0--0--0--0--3--5--|


PM PM PM PM PM PM PM PM PM PM
S S S S E S S S S E S S E
-----------------------------------------|
-----------------------------------------|
-----------------------------------------|
--------------3--------------5--------6--|
--------------3--------------5--------6--|
--0--0--0--0--3--0--0--0--0--5--0--0--6--|


PM PM PM PM PM PM PM PM PM PM
S S S S E S S S S E S S E
-----------------------------------------|
-----------------------------------------|
-----------------------------------------|
--------------3--------------5--------6--|
--------------3--------------5--------6--|
--0--0--0--0--3--0--0--0--0--5--0--0--6--|


PM PM PM PM PM PM PM PM PM PM PM PM
S S S S E S S S S E S S S S
--------------------------------------------|
--------------------------------------------|
--------------------------------------------|
--------------3--------------5--------------|
--------------3--------------5--------------|
--0--0--0--0--3--0--0--0--0--5--0--0--0--0--|


PM PM PM PM PM PM PM PM
E S S S S E S S S S E E
--------------------------------------|
--------------------------------------|
--------------------------------------|
--6--------------5--------------3--5--|
--6--------------5--------------3--5--|
--6--0--0--0--0--5--0--0--0--0--3--5--|


PM PM PM PM PM PM PM PM PM PM
S S S S E S S S S E S S E
-----------------------------------------|
-----------------------------------------|
-----------------------------------------|
--------------3--------------5--------6--|
--------------3--------------5--------6--|
--0--0--0--0--3--0--0--0--0--5--0--0--6--|


PM PM PM PM PM PM PM PM PM PM
S S S S E S S S S E S S E H. Q
-----------------------------------------|---------------------|
-----------------------------------------|---------------------|
-----------------------------------------|---------------------|
--------------3--------------5--------3--|--8------------8\----|
--------------3--------------5--------3--|--8------------8\----|
--0--0--0--0--3--0--0--0--0--5--0--0--3--|--8------------8\----|


Q Q Q Q Q Q Q Q
-----------------------||------------------------|
-----------------------||------------------------|
----------------------*||------------------------|
--5----6----7----8----*||--7----8----9----10\----|
--5----6----7----8-----||--7----8----9----10\----|
--5----6----7----8-----||--7----8----9----10\----|


E E E E E E E E E E E E E E E E
--------------13--------------13--|--------------12--------------12--|
----------13--------------13------|----------13--------------13------|
------14--------------14----------|------12--------------12----------|
--15--------------15--------------|--14--------------14--------------|
----------------------------------|----------------------------------|
----------------------------------|----------------------------------|


E E E E E E E E E E E E E E E E
--------------10--------------10--|--------------10--10------12------|
----------11--------------11------|----------11----------11------13--|
------10--------------10----------|------10--------------------------|
--12--------------12--------------|--12------------------------------|
----------------------------------|----------------------------------|
----------------------------------|----------------------------------|


E E E E E E E E E E E E E E E E
--------------13--------------13--|--------------12--------------12--|
----------13--------------13------|----------13--------------13------|
------14--------------14----------|------12--------------12----------|
--15--------------15--------------|--14--------------14--------------|
----------------------------------|----------------------------------|
----------------------------------|----------------------------------|


E E E E E E E E E E E E E E E E
--------------10--------------10--|--------------10--10------12------|
----------11--------------11------|----------11----------11------13--|
------10--------------10----------|------10--------------------------|
--12--------------12--------------|--12------------------------------|
----------------------------------|----------------------------------|
----------------------------------|----------------------------------|


E E E E E E E E E E E E E E E E
--------------15--------------15--|--------------13--------------13--|
----------15--------------15------|----------13--------------13------|
------15--------------15----------|------14--------------14----------|
--17--------------17--------------|--15--------------15--------------|
----------------------------------|----------------------------------|
----------------------------------|----------------------------------|


E E E E E E E E E E E E E E E E
--------------12--------------12--|--------------10--------------10--|
----------13--------------13------|----------11--------------11------|
------12--------------12----------|------10--------------10----------|
--14--------------14--------------|--12--------------12--------------|
----------------------------------|----------------------------------|
----------------------------------|----------------------------------|


E E E E E E E E E E E E E E E E
--13--------------12--------------|--10------------------------------|
------11------11------11------11--|------11------11--13--11--10--11--|
----------10--------------10------|----------10----------------------|
----------------------------------|----------------------------------|
----------------------------------|----------------------------------|
----------------------------------|----------------------------------|


E E E E E E E E E E E E E E E E
--12-------------10-------------|--9----------------------------|
------10-----10------10-----10--|-----10-----10--11--10---------|
----------9--------------9------|---------9--------------9------|
--------------------------------|---------------------------11--|
--------------------------------|-------------------------------|
--------------------------------|-------------------------------|


W W W
--10----------------|--13----------------|--16----------------|
--------------------|--------------------|--------------------|
---7----------------|--------------------|--------------------|
--------------------|--------------------|--------------------|
--------------------|--------------------|--------------------|
--------------------|--------------------|--------------------|


Q H. S S S S H.
--16----/16------------|--13-10----10-----------------|
-----------------------|--------13----13br------------|
-----------------------|------------------------------|
-----------------------|------------------------------|
-----------------------|------------------------------|
-----------------------|------------------------------|


Q Q Q Q
------------------------------|
---8------9-----10-----11-----|
--10b----11b----12b----13b----|
------------------------------|
------------------------------|
------------------------------|


S S S S S S S S S S S S S S S S
------------------------------------------12-13-15-|
--13-12-11-10-14-13-12-11-15-14-13-14S-15----------|
---------------------------------------------------|
---------------------------------------------------|
---------------------------------------------------|
---------------------------------------------------|


Q. S S S S S S S S S S S S S S S S S S S S S S S S S S
--17---17-------17-------------------|-20-17-------------------------------|
----------18-17----17-18-17----17----|-------20-17-3-1---1-----------------|
----------------------------17----17-|-----------------2-------------------|
-------------------------------------|-----------------------------5-6-7-8-|
-------------------------------------|---------------------5-6-7-8---------|
-------------------------------------|-------------------------------------|


Q E E Q E S S Q E S S S S S S S S S S
--------------------------|-------------------------------------12-|
--------------------------|-------------------10-13-10----10-13----|
--7----7S--5--9----L--7-9-|--10----L--9-10-13----------13----------|
--------------------------|----------------------------------------|
--------------------------|----------------------------------------|
--------------------------|----------------------------------------|


H Q Q H H H H
--/13--------/13----/15----|--/12-------------------|----------------------|
---------------------------|-------------/13--------|--13br--------13br----|
---------------------------|------------------------|----------------------|
---------------------------|------------------------|----------------------|
---------------------------|------------------------|----------------------|
---------------------------|------------------------|----------------------|


W S S S S S S S S T T T T T T T T T T T T T T T T
--5~----------------|--------------------------------------------------|
----------------------|--------------------------------------------------|
----------------------|------------------8-7-6-5-8-7-6-5-----------------|
----------------------|----------5-6-7-8-----------------8-7-6-5-8-7-6-5-|
----------------------|--5-6-7-8-----------------------------------------|
----------------------|--------------------------------------------------|


S S S S S S S S T T T T T T T T T T T T T T T T
--------------------------------------------------------|
--------------------------------------------------------|
--------------------10-9-8-7-10-9-8-7-------------------|
-----------7-8-9-10-------------------10-9-8-7-10-9-8-7-|
--7-8-9-10----------------------------------------------|
--------------------------------------------------------|


S S S T S S S T S S S T S S S S S T
-------------------------------------------------------|
-------------------------------------10-11-13-10-11-13-|
--------------------------12-9-10-12-------------------|
--------------10-11-12-13------------------------------|
--10-11-12-13------------------------------------------|
-------------------------------------------------------|


S S S S S S S S S S S S Q
--10-12-13-12-10-----------------------------|
-----------------13-10-11-13-11-10-----------|
-----------------------------------12-10~----|
---------------------------------------------|
---------------------------------------------|
---------------------------------------------|


S S S S S S S S S S S S S S S S
--13-12-11-10-------------------------------------|
--------------14-13-12-11-10----------------------|
-----------------------------13-12-11-10----------|
-----------------------------------------14-13-12-|
--------------------------------------------------|
--------------------------------------------------|


S S S S S S S S S S S S S S S S
--12-11-10----------------------------------------|
-----------14-13-12-11-10-------------------------|
--------------------------13-12-11-10-------------|
--------------------------------------14-13-12-11-|
--------------------------------------------------|
--------------------------------------------------|


S S S S S S S S S S S S S S S S
--11-10-------------------------------------------|
--------14-13-12-11-10----------------------------|
-----------------------13-12-11-10----------------|
-----------------------------------14-13-12-11-10-|
--------------------------------------------------|
--------------------------------------------------|


S S S S S S S S S S S S S S S S
--10---------------------------------------------|
-----14-13-12-11-10------------------------------|
--------------------13-12-11-10------------------|
--------------------------------14-13-12-11-10-9-|
-------------------------------------------------|
-------------------------------------------------|


PM PM PM PM PM PM PM PM PM PM PM PM
S S S S E S S S S E S S S S
--------------------------------------------|
--------------------------------------------|
--------------------------------------------|
--------------3--------------5--------------|
--------------3--------------5--------------|
--0--0--0--0--3--0--0--0--0--5--0--0--0--0--|


PM PM PM PM PM PM PM PM
E S S S S E S S S S E E
--------------------------------------|
--------------------------------------|
--------------------------------------|
--6--------------5--------------3--5--|
--6--------------5--------------3--5--|
--6--0--0--0--0--5--0--0--0--0--3--5--|


PM PM PM PM PM PM PM PM PM PM
S S S S E S S S S E S S E
-----------------------------------------|
-----------------------------------------|
-----------------------------------------|
--------------3--------------5--------6--|
--------------3--------------5--------6--|
--0--0--0--0--3--0--0--0--0--5--0--0--6--|


PM PM PM PM PM PM PM PM PM PM
S S S S E S S S S E S S E
-----------------------------------------|
-----------------------------------------|
-----------------------------------------|
--------------3--------------5--------6--|
--------------3--------------5--------6--|
--0--0--0--0--3--0--0--0--0--5--0--0--6--|


PM PM PM PM PM PM PM PM PM PM PM PM
S S S S E S S S S E S S S S
--------------------------------------------|
--------------------------------------------|
--------------------------------------------|
--------------3--------------5--------------|
--------------3--------------5--------------|
--0--0--0--0--3--0--0--0--0--5--0--0--0--0--|


PM PM PM PM PM PM PM PM
E S S S S E S S S S E E
--------------------------------------|
--------------------------------------|
--------------------------------------|
--6--------------5--------------3--5--|
--6--------------5--------------3--5--|
--6--0--0--0--0--5--0--0--0--0--3--5--|


PM PM PM PM PM PM PM PM PM PM
S S S S E S S S S E S S E
-----------------------------------------|
-----------------------------------------|
-----------------------------------------|
--------------3--------------5--------6--|
--------------3--------------5--------6--|
--0--0--0--0--3--0--0--0--0--5--0--0--6--|


PM PM PM PM PM PM PM PM PM PM
S S S S E S S S S E S S E H. Q
-----------------------------------------|---------------------|
-----------------------------------------|---------------------|
-----------------------------------------|---------------------|
--------------3--------------5--------3--|--8------------8\----|
--------------3--------------5--------3--|--8------------8\----|
--0--0--0--0--3--0--0--0--0--5--0--0--3--|--8------------8\----|


PM PM PM PM PM PM PM PM PM PM PM PM
Q Q Q Q S S S S E S S S S E S S S S
----------------------|--------------------------------------------|
----------------------|--------------------------------------------|
----------------------|--------------------------------------------|
--5----6----7----8----|--------------3--------------5--------------|
--5----6----7----8----|--------------3--------------5--------------|
--5----6----7----8----|--0--0--0--0--3--0--0--0--0--5--0--0--0--0--|


PM PM PM PM PM PM PM PM
E S S S S E S S S S E E
--------------------------------------|
--------------------------------------|
--------------------------------------|
--6--------------5--------------3--5--|
--6--------------5--------------3--5--|
--6--0--0--0--0--5--0--0--0--0--3--5--|


PM PM PM PM PM PM PM PM PM PM
S S S S E S S S S E S S E
-----------------------------------------|
-----------------------------------------|
-----------------------------------------|
--------------3--------------5--------6--|
--------------3--------------5--------6--|
--0--0--0--0--3--0--0--0--0--5--0--0--6--|


PM PM PM PM PM PM PM PM PM PM
S S S S E S S S S E S S E
-----------------------------------------|
-----------------------------------------|
-----------------------------------------|
--------------3--------------5--------6--|
--------------3--------------5--------6--|
--0--0--0--0--3--0--0--0--0--5--0--0--6--|


PM PM PM PM PM PM PM PM PM PM PM PM
S S S S E S S S S E S S S S
--------------------------------------------|
-------------------------

Like us on Facebook.....
-> Loading Time :0.0177 sec