Bath of Least Resistance Tabs & Lyrics by NOFX

Bath of Least Resistance

guitar tabs lyrics

NOFX

Album : 45 or 46 Songs That Weren’t Good Enough to Go on Our Other Records punk PlayStop


Song: Bath of Least Resistance
Band: Nofx
I hope this tab is good. if its not, plz help then.

Intro
E---------------------------------------------|
A-----2-2-4-4-1-1-6-6---2-2-4-4-1-1-6-6-------|
D---------------------------------------------|
G---------------------------------------------|
B---------------------------------------------|

E---------------------------------------------|

then the verse-

E---------------------|
A--2-2--4-4--1-1--6-6-|
D--4-4--6-6--3-3--8-8-| (repeated 3 times)
G--4-4--6-6--3-3--8-8-|
B---------------------|
E---------------------|

Chorus-(I need a brainwash)

E---------------------|
A--2--4--1--6-6-6-6---|
D--4--6--3--8-8-8-8---|
G--4--6--3--8-8-8-8---|
B---------------------|
E---------------------|

Like us on Facebook.....
-> Loading Time :0.0346 sec