Barbie Girl Tabs & Lyrics by Home Grown

Barbie Girl

guitar tabs lyrics

Home Grown

Album : EP Phone HomePlayStop


homegrown - Barbie Girl
Tabbed By: nathan read
EMail: keeponskanknroni@aol.com


1st time: every time after that:
e|--------------|----------------------|
B|--------------|----------------------|
G|-10-11-7h8-10-|-10-11-8-10-----------|
D|--------------|----------------------|

A|--------------|----------------------|
E|--------------|----------------------|

intro/verse:
1st part: 1st time: 2nd time through:
e|-----------|-----------|---------------------|
B|-----------|-----------|---------------------|
G|-----------|-----------|---------------------|
D|-------6-5-|-----------|---------------------|
A|-8-4-6-4-3-|-----8-----|-8-8-8-8-8-8-8-8-8-8-|
E|-6-2-4-----|-----6-----|-6-6-6-6-6-6-6-6-6-6-|

chorus:
e|-----------------------------|
B|-----------------------------|
G|-----------------------------|
D|-------------------------6-5-|
A|-8-8-8-8-4-4-4-4-6-6-6-6-4-3-|
E|-6-6-6-6-2-2-2-2-4-4-4-4-----|

outro:
e|-------------------|
B|-------------------|
G|-------------------|
D|-------------------|
A|-8-8-8-8-4-4-4-6-8-|
E|-6-6-6-6-2-2-2-4-6-|

Like us on Facebook.....
-> Loading Time :0.0081 sec