Bang Pow Boom Tabs & Lyrics by Insane Clown Posse

Bang Pow Boom

guitar tabs lyrics

Insane Clown Posse

Album : Bang! Pow! Boom! [Nuclear Edition]PlayStop


|------------------------------------------------------|
| IIIIIIIIIIIIIII cccc PP |
| I c P P |
| I c P P |
| I c P P |
| I c P P |
| I c PP |
| I c P |
| I c P |
| I c P |

|----------IIIIIIIIIIIIII cccc P-------------|

I just had to do this whole album and yes i did all the tabs ^_^ by ear.Plezz tell me how it is!
MCL

[All tabs i did by ear]



---------------------------------------------------------
1.Intro:(Has no guitar)


Icp

2.Beautiful Doom

Chorus:
e|--------------|---------------------------------------|
B|--------------|---------------------------------------|
G|--9-10/-------|--9-10/--------------------------------|
D|--9-10/-------|--9-10/----5-7-------------------------|
A|--7-8/--------|--7-8/-----5-7-------------------------|
E|--------------|-----------3-5-------------------------|
Repeat (4x) Pm---| Repeat (4x)


----------------------------------------------------------

Icp

3.In Yo Face

Solo
e|-------------------------20--------------------------|
B|-22-22-23-22/--\22-22-23----23-22/-------------------|
G|-----------------------------------------------------|
D|-----------------------------------------------------|
A|-----------------------------------------------------|
E|-----------------------------------------------------|
Repeat (4x)

Outro:
e|-----------------------------------------------------|
B|-----------------------------------------------------|
G|--7-7-7-x-x-7-x-10-7-7-------------------------------|
D|-----------------------------------------------------|
A|-----------------------------------------------------|
E|-----------------------------------------------------|
Repeat(2x)

----------------------------------------------------------

ICP

4.The Bone


Intro:
e|-----------------------------------------------------|
B|-----------------------------------------------------|
G|-17--15--12--9---------------------------------------|
D|-----------------------------------------------------|
A|-----------------------------------------------------|
E|-----------------------------------------------------|
Weird effect through song



Verse 1:
e|-----------------------------------------------------|
B|-----------------------------------------------------|
G|-----------------------------------------------------|
D|-----------------------------------------------------|
A|-----------------------------------------------------|
E|-0-0-3-0--0-0-3-0--0-0-3-0--5-3-0-3------------------|
Repeat this 3x

e|-----------------------------------------------------|
B|-----------------------------------------------------|
G|--17--15--12--9--------------------------------------|
D|-----------------------------------------------------|
A|-----------------------------------------------------|
E|-----------------------------------------------------|




e|-----------------------------------------------------|
B|-----------------------------------------------------|
G|-----------------------------------------------------|
D|-----------------------------------------------------|
A|-----------------------------------------------------|
E|-0-0-3-0--0-0-3-0--0-0-3-0--5-3-0-3------------------|
Repeat this 3x
Guitar 2
e|-----------------------------------------------------|
B|-----------------------------------------------------|
G|-12-9---12-9---12-9---12-9--12-9---------------------|
D|-----------------------------------------------------|
A|-----------------------------------------------------|
E|-----------------------------------------------------|


e|-----------------------------------------------------|
B|-----------------------------------------------------|
G|--17--15--12--9--------------------------------------|
D|-----------------------------------------------------|
A|-----------------------------------------------------|
E|-----------------------------------------------------|




e|-----------------------------------------------------|
B|-----------------------------------------------------|
G|-----------------------------------------------------|
D|-----------------------------------------------------|
A|-----------------------------------------------------|
E|-0-0-3-0--0-0-3-0--0-0-3-0--5-3-0-3------------------|
Repeat this 3x

e|-----------------------------------------------------|
B|--17w-----bend(full step)----------------------------|
G|-----------------------------------------------------|
D|-----------------------------------------------------|
A|-----------------------------------------------------|
E|-----------------------------------------------------|
whammy bar up and down




e|-----------------------------------------------------|
B|-----------------------------------------------------|
G|-----------------------------------------------------|
D|-----------------------------------------------------|
A|-----------------------------------------------------|
E|-0-0-3-0--0-0-3-0--0-0-3-0--5-3-0-3------------------|
Repeat this 3x

e|-----------------------------------------------------|
B|-----------------------------------------------------|
G|--------------------------------------------9-12-----|
D|-----------------------------------------------------|
A|-----------------------------------------------------|
E|-----------------------------------------------------|
(Last measure be for the chorus he hits the end of the string behind the nut of the b string)

Chorus 1:
e|-----------------------------------------------------|
B|-----------------------------------------------------|
G|-----------------------------------------------------|
D|-----------------------------------------------------|
A|-13-13-13-13-12-10--7-9-7----------------------------|
E|-----------------------------------------------------|
Repeat 3 times

e|-----------------------------------------------------|
B|-----------------------------------------------------|
G|-17-15-12-9------------------------------------------|
D|-----------------------------------------------------|
A|-----------------------------------------------------|
E|-----------------------------------------------------|


Verse 2:
e|-----------------------------------------------------|
B|-----------------------------------------------------|
G|-----------------------------------------------------|
D|-----------------------------------------------------|
A|-----------------------------------------------------|
E|-0-0-3-0--0-0-3-0--0-0-3-0--5-3-0-3------------------|
Repeat this 3x

e|-----------------------------------------------------|
B|-17-15-12-5------------------------------------------|
G|-----------------------------------------------------|
D|-----------------------------------------------------|
A|-----------------------------------------------------|
E|-----------------------------------------------------|




e|-----------------------------------------------------|
B|-----------------------------------------------------|
G|-----------------------------------------------------|Repeat 3x
D|-----------------------------------------------------|
A|-----------------------------------------------------|
E|-0-0-3-0--0-0-3-0--0-0-3-0--5-3-0-3------------------|

Guitar 2
e|-----------------------------------------------------|
B|-----------------------------------------------------|
G|-12-9---12-9---12-9---12-9--12-9---------------------|
D|-----------------------------------------------------|
A|-----------------------------------------------------|
E|-----------------------------------------------------|


e|-----------------------------------------------------|
B|-----------------------------------------------------|
G|-17W-15W-12W-9W--------------------------------------|
D|-----------------------------------------------------|
A|-----------------------------------------------------|
E|-----------------------------------------------------|
wammy bar up and down really fast




e|-----------------------------------------------------|
B|-----------------------------------------------------|
G|-----------------------------------------------------|Repeat 3x
D|-----------------------------------------------------|
A|-----------------------------------------------------|
E|-0-0-3-0--0-0-3-0--0-0-3-0--5-3-0-3------------------|

Gutiar in background frist time.
e|-----------------------------------------------------|
B|-----------------------------------------------------|
G|-----------------------------------------------------|
D|------stop and start pick slide----------------------|
A|-----------------------------------------|
E|-----------------------------------------------------|




e|-----------------------------------------------------|
B|-17w~~~~~~~~~~~~~~~~~~~~~~~~~~~~~~-------------------|
G|-------------------------------------------9--12-----|
D|-----------------------------------------------------|
A|-----------------------------------------------------|
E|-----------------------------------------------------|




e|-----------------------------------------------------|
B|-----------------------------------------------------|
G|-----------------------------------------------------|Repeat 3x
D|-----------------------------------------------------|
A|-----------------------------------------------------|
E|-0-0-3-0--0-0-3-0--0-0-3-0--5-3-0-3------------------|


e|-23-24-23-20-23-20-19-20-19-17-19-17-15-17-14-15-14--|
B|-----------------------------------------------------|
G|-----------------------------------------------------|
D|-----------------------------------------------------|
A|-----------------------------------------------------|
E|-----------------------------------------------------|

Chorus 2:
e|-----------------------------------------------------|
B|-----------------------------------------------------|
G|-----------------------------------------------------|
D|-----------------------------------------------------|
A|-13-13-13-13-12-10--7-9-7----------------------------|
E|-----------------------------------------------------|
Repeat 3 times


e|-----------------------------------------------------|
B|-17w-15w-12w-----------------------------------------|
G|-----------------------------------------------------|
D|-----------------------------------------------------|
A|-----------------------------------------------------|
E|-----------------------------------------------------|
whammy bar slow down

Verse 3:
e|-----------------------------------------------------|
B|-----------------------------------------------------|
G|-----------------------------------------------------|Repeat 3x
D|-----------------------------------------------------|
A|-----------------------------------------------------|
E|-0-0-3-0--0-0-3-0--0-0-3-0--5-3-0-3------------------|


e|-19-21-23-24-24b-24-21-23-24b-24-21-23-24--21--------|
B|-----------------------------------------------------|
G|-----------------------------------------------------|
D|-----------------------------------------------------|
A|-----------------------------------------------------|
E|-----------------------------------------------------|




Free time :)

e|-----------------------------------------------------|
B|-----------------------------------------------------|
G|-----------------------------------------------------|Repeat 3x
D|-----------------------------------------------------|
A|-----------------------------------------------------|
E|-----------------------------------------------------|

e|-19--19--19-19---------------------------------------|
B|-----------------------------------------------------|
G|----------------9-12---------------------------------|
D|-----------------------------------------------------|
A|-----------------------------------------------------|
E|-----------------------------------------------------|




e|-----------------------------------------------------|
B|-----------------------------------------------------|
G|-----------------------------------------------------|Repeat 3x
D|-----------------------------------------------------|
A|-----------------------------------------------------|
E|-0-0-3-0--0-0-3-0--0-0-3-0--5-3-0-3------------------|

e|-----------------------------------------------------|
B|-----------------------------------------------------|
G|-17w-15w-12w-9w--------------------------------------|
D|-----------------------------------------------------|
A|-----------------------------------------------------|
E|-----------------------------------------------------|




e|-----------------------------------------------------|
B|-----------------------------------------------------|
G|-----------------------------------------------------|Repeat 3x
D|-----------------------------------------------------|
A|-----------------------------------------------------|
E|-0-0-3-0--0-0-3-0--0-0-3-0--5-3-0-3------------------|


e|-----------------------------------------------------|
B|-----------------------------------------------------|
G|-----------------------------------------------------|
D|-----------------------------------------------------|
A|-0w-12-0w-12-0w-12-0w-12-----------------------------|
E|-----------------------------------------------------|


Chorus 3:
e|-----------------------------------------------------|
B|-----------------------------------------------------|
G|-----------------------------------------------------|
D|-----------------------------------------------------|
A|-13-13-13-13-12-10--7-9-7----------------------------|
E|-----------------------------------------------------|
Repeat 3 times

outro
e|-----------------------------------------------------|
B|-15w-------------------------------------------------|
G|-----------------------------------------------------|
D|-----------------------------------------------------|
A|-----------------------------------------------------|
E|-------------12////////////////////////////////////--|
Slide Down will slowly pushing down the wammy bar

[Girl scout]
Hello, mister!
I hope you weren't sleeping?
Would you like to buy some girl scout cookies

[Deep-voiced man]
Oh. Cookies, huh?
That sounds really good right about now.
What kind do you got?

[Girl scout]
Oh my gosh! You sound really scary!
Why do you sound like that?

[Deep-voiced man]
What do you mean, sweetie?
Do you have any Samoas
Or just them Thin Mints?

[Girl scout]
M-m-maybe I should go?
You sound really weird and I'm scared!

[Deep-voiced man]
Wait! What about them Tag-Alongs?
Can I at least get a box of them bad boys?
Shit. What the fuck you wake me
up for, then, bitch? Man!

LOL much clown love

---------------------------------------------------------



ICP


5.Zombie Slide

Intro:
e|-14b--(1/2 step)-------------------------------------|
B|-----------------------------------------------------|
G|-----------------------------------------------------|
D|-----------------------------------------------------|
A|-----------------------------------------------------|
E|-----------------------------------------------------|

(Keyboards put into guitar)
e|-----------------------------------------------------|
B|--------12-10----------------------------------------|
G|-9--12----------9------------------------------------|
D|-----------------------------------------------------|
A|-----------------------------------------------------|
E|-----------------------------------------------------|



verse 1:
e|--------------------|
B|--------------------|
G|--------------------|
D|--9-7-9-------------|
A|--7-5-7-------------|
E|--------------------|
(Repeat 5x)


Chorus 1:

(Keyboards put into guitar)
e|-----------------------------------------------------|
B|--------12-10----------------------------------------|
G|-9--12----------9------------------------------------|
D|-----------------------------------------------------|
A|-----------------------------------------------------|
E|-----------------------------------------------------|
(Repeat 2x)


verse 2:
e|--------------------|
B|--------------------|
G|--------------------|
D|--9-7-9-------------|
A|--7-5-7-------------|
E|--------------------|


e|-0---------------------------------------------------|
B|-0-tremolo bar being played with---------------------|
G|-0---------------------------------------------------|
D|-----------------------------------------------------|
A|-----------------------------------------------------|
E|------------------------------------0~~~~~~~~--------|



Chorus 2:

(Keyboards put into guitar)
e|-----------------------------------------------------|
B|--------12-10----------------------------------------|
G|-9--12----------9------------------------------------|
D|-----------------------------------------------------|
A|-----------------------------------------------------|
E|-----------------------------------------------------|
(Repeat 2x)



Chorus 2:

(Keyboards put into guitar)
e|-----------------------------------------------------|
B|--------12-10----------------------------------------|
G|-9--12----------9------------------------------------|
D|-----------------------------------------------------|
A|-----------------------------------------------------|
E|-----------------------------------------------------|
(Repeat)

Solo:
e|-------------------|----------------------------------|
B|-------------------|----------------------------------|
G|-9-7-9-7-9---------|----------------------------------|
D|------------9-7-9--|-99999999-777-55-7----------------|
A|-------------------|----------------------------------|
E|-------------------|----------------------------------|
(Repeat 4x) ONLY DO THE FRIST TIME!

Wha-padel

Solo 2:
e|---------(12)-----------10-1010----------------------|
B|-10h12----------10h12--------------------------------|
G|-----------------------------------------------------|
D|-----------------------------------------------------|
A|-----------------------------------------------------|
E|-----------------------------------------------------|

e|-------10-12-10---------|
B|-10h12----------12-10---|
G|------------------------|
D|------------------------|
A|------------------------|
E|------------------------|
^repeat this part till end!



------------------------------------------------------------



Icp

6.To Catch a predator


Intro:
e|-----------------------------------------------------|
B|-----------------------------------------------------|
G|-----------------------------------------------------|
D|-----------------------------------------------------|
A|-----------------------------------------------------|
E|--1/3--4-0--0-0-0--1/3--4-0--0-0-0--1/3--4-0--0-0-0--|

Guitar 2
e|-----------------------------------------------------|
B|-----------------------------------------------------|
G|----------------Feed back----------------------------|
D|-----------------------------------------------------|
A|-----------------------------------------------------|
E|-----------------------------------------------------|




VERSE 1:
e|---------------|--------------------------------------|
B|---------------|--------------------------------------|
G|---------------|--------------------------------------|
D|-2-2--x----2---|--------------------------------------|
A|-2-2--x2---2---|--7----5----9-------------------------|
E|-0-0--x0---0---|--5----3----7-------------------------|
PM-------|
Repeat (3x)

e|---------------|--------------------------------------|
B|---------------|--------------------------------------|
G|---------------|--------------------------------------|
D|-2-2--x----2---|--------------------------------------|
A|-2-2--x2---2---|--7----5----9-------------------------|
E|-0-0--x0---0---|--5----3----7-------------------------|
PM-------|
Repeat (3x)

e|---------------|--------------------------------------|
B|---------------|--------------------------------------|
G|---------------|--------------------------------------|
D|-2-2--x----2---|--------------------------------------|
A|-2-2--x2---2---|--7----5----9-------------------------|
E|-0-0--x0---0---|--5----3----7-------------------------|
PM-------|
Repeat (3x)

Guitar 2
e|-----------------------------------------------------|
B|-----------------------------------------------------|
G|-----------------------------------------------------|
D|-----------------------------------------------------|
A|-7-7-7-101010-7-7-10-7-7-7-99-7-7-9-9-9-7-7-7-101010-|
E|-----------------------------------------------------|

e|-----------------------------------------------------|
B|-----------------------------------------------------|
G|-----------------------------------------------------|
D|-----------------------------------------------------|
A|-7-7-10-7--------------------------------------------|
E|-----------------------------------------------------|



e|---------------|-----------------------------
B|---------------|-----------------------------
G|---------------|-----------------------------
D|------x----2---|-2-2--x----2-----------------
A|------x2---2---|-2-2--x2---2-----------------
E|------x0---0---|-0-0--x0---0-----------------
PM-------| PM-------|
Repeat (3x)

Guitar 2
e|-----------------------------------------------------|
B|-----------------------------------------------------|
G|-----------------------------------------------------|
D|-----------------------------------------------------|
A|-----7-101010-7-7-10-7-7-7-99-7-7-9-9-9-7-7-7-101010-|
E|-----------------------------------------------------|

e|-----------------------------------------------------|
B|-----------------------------------------------------|
G|-----------------------------------------------------|
D|-----------------------------------------------------|
A|-7-7-10-7--------------------------------------------|
E|-----------------------------------------------------|



CHORUS 1:
e|-----------------------------------------------------|
B|-----------------------------------------------------|
G|-----------------------------------------------------|
D|-----------------------------------------------------|
A|-14---13---12---11--10--9----------------------------|
E|-12---11---10---9---8---7---1/3--4-0--0-0-0--1/3--4-0|

e|-----------------------------------------------------|
B|-----------------------------------------------------|
G|-----------------------------------------------------|
D|-----------------------------------------------------|
A|-----------------------------------------------------|
E|-1/3--4-0--------------------------------------------|

e|-----------------------------------------------------|
B|-----------------------------------------------------|
G|-----------------------------------------------------|
D|-----------------------------------------------------|
A|-14---13---12---11--10--9----------------------------|
E|-12---11---10---9---8---7---1/3--4-0--0-0-0--1/3--4-0|



Verse 2:
e|---------------|--------------------------------------|
B|---------------|--------------------------------------|
G|---------------|--------------------------------------|
D|-2-2--x----2---|--------------------------------------|
A|-2-2--x2---2---|--7----5----9-------------------------|
E|-0-0--x0---0---|--5----3----7-------------------------|
PM-------|
Repeat (3x)

e|---------------|--------------------------------------|
B|---------------|--------------------------------------|
G|---------------|--------------------------------------|
D|-2-2--x----2---|--------------------------------------|
A|-2-2--x2---2---|--7----5----9-------------------------|
E|-0-0--x0---0---|--5----3----7-------------------------|
PM-------|
Repeat (3x)

e|---------------|--------------------------------------|
B|---------------|--------------------------------------|
G|---------------|--------------------------------------|
D|-2-2--x----2---|--------------------------------------|
A|-2-2--x2---2---|--7----5----9-------------------------|
E|-0-0--x0---0---|--5----3----7-------------------------|
PM-------|
Repeat (3x)


Guitar 2
e|-----------------------------------------------------|
B|-----------------------------------------------------|
G|-----------------------------------------------------|
D|-----------------------------------------------------|
A|-7-7-7-101010-7-7-10-7-7-7-99-7-7-9-9-9-7-7-7-101010-|
E|-----------------------------------------------------|

e|-----------------------------------------------------|
B|-----------------------------------------------------|
G|-----------------------------------------------------|
D|-----------------------------------------------------|
A|-7-7-10-7--------------------------------------------|
E|-----------------------------------------------------|


e|---------------|--------------------|
B|---------------|--------------------|
G|---------------|--------------------|
D|------x----2---|-2-2--x----2--------|
A|------x2---2---|-2-2--x2---2--------|
E|------x0---0---|-0-0--x0---0--------|
PM-------| PM-------|
Repeat (2x)

Guitar 2
e|-----------------------------------------------------|
B|-----------------------------------------------------|
G|-----------------------------------------------------|
D|-----------------------------------------------------|
A|-----7-101010-7-7-10-7-7-7-99-7-7-9-9-9-7-7-7-101010-|
E|-----------------------------------------------------|

e|-----------------------------------------------------|
B|-----------------------------------------------------|
G|-----------------------------------------------------|
D|-----------------------------------------------------|
A|-7-7-10-7--------------------------------------------|
E|-----------------------------------------------------|

e|-----------------------------------------------------|
B|-----------------------------------------------------|
G|-----------------------------------------------------|
D|-----------------------------------------------------|
A|--7--------------------------------------------------|
E|--5--------------------------------------------------|

Breakdown:
e|-----------------------------------------------------|
B|-----------------------------------------------------|
G|-9-9-9-9-9-9b(full step)-9-9-9-9-9-9-9-9-9-9-9b-9-9--|
D|-----------------------------------------------------|
A|-----------------------------------------------------|
E|-----------------------------------------------------|
You get the Idea lol I hope XD

Verse 3:
e|---------------|
B|---------------|
G|---------------|
D|-2-2--x----2---|
A|-2-2--x2---2---|
E|-0-0--x0---0---|
PM-------|
Repeat (4x)



CHORUS 2:
e|-----------------------------------------------------|
B|-----------------------------------------------------|
G|-----------------------------------------------------|
D|-----------------------------------------------------|
A|-14---13---12---11--10--9----------------------------|
E|-12---11---10---9---8---7---1/3--4-0--0-0-0--1/3--4-0|

e|-----------------------------------------------------|
B|-----------------------------------------------------|
G|-----------------------------------------------------|
D|-----------------------------------------------------|
A|-----------------------------------------------------|
E|-1/3--4-0--------------------------------------------|

e|-----------------------------------------------------|
B|-----------------------------------------------------|
G|-----------------------------------------------------|
D|-----------------------------------------------------|
A|-14---13---12---11--10--9----------------------------|
E|-12---11---10---9---8---7---1/3--4-0--0-0-0--1/3--4-0|



Breakdown 2:
e|-----------------------------------------------------|
B|-----------------------------------------------------|
G|-9-9-9-9-9-9b(full step)-9-9-9-9-9-9-9-9-9-9-9b-9-9--|
D|-----------------------------------------------------|
A|-----------------------------------------------------|
E|-----------------------------------------------------|


Verse 3:
e|---------------|--------------------------------------|
B|---------------|--------------------------------------|
G|---------------|--------------------------------------|
D|-2-2--x----2---|--------------------------------------|
A|-2-2--x2---2---|--7----5----9-------------------------|
E|-0-0--x0---0---|--5----3----7-------------------------|
PM-------|
Repeat (3x)

e|---------------|--------------------------------------|
B|---------------|--------------------------------------|
G|---------------|--------------------------------------|
D|-2-2--x----2---|--------------------------------------|
A|-2-2--x2---2---|--------------------------------------|
E|-0-0--x0---0---|--------------------------------------|
PM-------|
Repeat (3x)

e|---------------|-------------------------------------|
B|---------------|-------------------------------------|
G|---------------|-------------------------------------|
D|-2-2--x----2---|-------------------------------------|
A|-2-2--x2---2---|--7----5---9-------------------------|
E|-0-0--x0---0---|--5----3---7-------------------------|
PM-------|
Repeat (3x)


Guitar 2
e|-----------------------------------------------------|
B|-----------------------------------------------------|
G|-----------------------------------------------------|
D|-----------------------------------------------------|
A|-7-7-7-101010-7-7-10-7-7-7-99-7-7-9-9-9-7-7-7-101010-|
E|-----------------------------------------------------|

e|-----------------------------------------------------|
B|-----------------------------------------------------|
G|-----------------------------------------------------|
D|-----------------------------------------------------|
A|-7-7-10-7--------------------------------------------|
E|-----------------------------------------------------|


e|---------------|------------------------------------|
B|---------------|------------------------------------|
G|---------------|------------------------------------|
D|-2-2--x----2---|------------------------------------|
A|-2-2--x2---2---|--7---------------------------------|
E|-0-0--x0---0---|--5---------------------------------|
PM-------|
Repeat (3x)


Guitar 2
e|-----------------------------------------------------|
B|-----------------------------------------------------|
G|-----------------------------------------------------|
D|-----------------------------------------------------|
A|-7-7-7-101010-7-7-10-7-7-7-99-7-7-9-9-9-7-7-7-101010-|
E|-----------------------------------------------------|

e|-----------------------------------------------------|
B|-----------------------------------------------------|
G|-----------------------------------------------------|
D|-----------------------------------------------------|
A|-7-7-10-7--------------------------------------------|
E|-----------------------------------------------------|




Breakdown 3:
e|-----------------------------------------------------|
B|-----------------------------------------------------|
G|-9-9-9-9-9-9b(full step)-9-9-9-9-9-9-9-9-9-9-9b-9-9--|
D|-----------------------------------------------------|
A|-----------------------------------------------------|
E|-----------------------------------------------------|
You get the Idea lol I hope XD

Verse 4:
e|---------------|
B|---------------|
G|---------------|
D|-2-2--x----2---|
A|-2-2--x2---2---|
E|-0-0--x0---0---|
PM-------|
Repeat (4x)



CHORUS 3:
e|-----------------------------------------------------|
B|-----------------------------------------------------|
G|-----------------------------------------------------|
D|-----------------------------------------------------|
A|-14---13---12---11--10--9----------------------------|
E|-12---11---10---9---8---7---1/3--4-0--0-0-0--1/3--4-0|

e|-----------------------------------------------------|
B|-----------------------------------------------------|
G|-----------------------------------------------------|
D|-----------------------------------------------------|
A|-----------------------------------------------------|
E|-1/3--4-0--------------------------------------------|

e|-----------------------------------------------------|
B|-----------------------------------------------------|
G|-----------------------------------------------------|
D|-----------------------------------------------------|
A|-14---13---12---11--10--9----------------------------|
E|-12---11---10---9---8---7---1/3--4-0--0-0-0--1/3--4-0|

outro:
e|-----------------------------------------------------|
B|-----------------------------------------------------|
G|-----------------------------------------------------|
D|-----------------------------------------------------|
A|------------------------|
E|-->\\\\\\\\\\\-f---------------------|

e|-----------------------------------------------------|
B|-10/12-10-5-5/7-------10/12-10-5-5/7-----------------|
G|-----------------------------------------------------|
D|-----------------------------------------------------|
A|-----------------------------------------------------|
E|-----------------------------------------------------|

---------------------------------------------------------



Icp

7.Boing Boing
(No Guitar for this song)





ICP

8.I Found a body

(No guitar for this song... but i love this song soo i am thinking
about making a guitar pro of this song.)

---------------------------------------------------------




Icp

9.Love


Intro:
e|-----------------------------------------------------|
B|-----------------------------------------------------|
G|-9~~~~\-9~~~~\-9~~~~~\-9~~~~~~~~~\-------------------|
D|-9~~~~\-9~~~~\-9~~~~~\-9~~~~~~~~~\-------------------|
A|-7~~~~\-7~~~~\-7~~~~~\-7~~~~~~~~~\-------------------|
E|-----------------------------------------------------|


verse 1:
e|-----------------------------------------------------|
B|-----------------------------------------------------|
G|-----------------------------------------------------|
D|--9-9-9-9-7-9-10-9-----------------------------------|
A|--7-7-7-7-5-7-8--7-----------------------------------|
E|-----------------------------------------------------|
Pm----------------|
Repeat(15x)
On the 9th time you repeated the measure above
The Keyboard comes in but i have tabbed out so
that you can play it on the guitar.

e|-----------------------------------------------------|
B|-----------------------------------------------------|
G|--9v~~/16v-14/16v-14v-12/14v-14/12v-9v---------------|
D|-----------------------------------------------------|
A|-----------------------------------------------------|
E|-----------------------------------------------------|




Chorus 1:
e|-----------------------------------------------------|
B|-----------------------------------------------------|
G|-9----9----9-----9----9---9-----9----9---------------|
D|-9----9----9-----9----9---9-----9----9---------------|
A|-7----7----7-----7----7---7-----7----7---------------|
E|-----------------------------------------------------|
let ring----------------------------------|


verse 2:
e|-----------------------------------------------------|
B|-----------------------------------------------------|
G|-----------------------------------------------------|
D|--9-9-9-9-7-9-10-9-----------------------------------|
A|--7-7-7-7-5-7-8--7-----------------------------------|
E|-----------------------------------------------------|
Pm----------------|

Repeat(14x)
On the 8th time you repeated the measure above
The Keyboard comes in but i have tabbed out so
that you can play it on the guitar.

e|-----------------------------------------------------|
B|-----------------------------------------------------|
G|--9v~~/16v-14/16v-14v-12/14v-14/12v-9v---------------|
D|-----------------------------------------------------|
A|-----------------------------------------------------|
E|-----------------------------------------------------|


Chorus 2:
e|-----------------------------------------------------|
B|-----------------------------------------------------|
G|-9----9----9-----9----9---9-----9----9---------------|
D|-9----9----9-----9----9---9-----9----9---------------|
A|-7----7----7-----7----7---7-----7----7---------------|
E|-----------------------------------------------------|
let ring----------------------------------|


Breakdown:
e|-----------------------------------------------------|
B|-----------------------------------------------------|
G|-----------------------------------------------------|
D|-----------------------------------------------------|
A|-----------------------------------------------------|
E|-----------------------------------------------------|
Repeat(8x)

Love!
e|-----------------------------------------------------|
B|-----------------------------------------------------|
G|-----------------------------------------------------|
D|--9-9-9-9-7-9-10-9-----------------------------------|
A|--7-7-7-7-5-7-8--7-----------------------------------|
E|-----------------------------------------------------|
Pm----------------|
Repeat(7x)
Chorus 3:
e|-----------------------------------------------------|
B|-----------------------------------------------------|
G|-9----9----9-----9----9---9-----9----9---------------|
D|-9----9----9-----9----9---9-----9----9---------------|
A|-7----7----7-----7----7---7-----7----7---------------|
E|-----------------------------------------------------|
let ring----------------------------------|

Breakdown 2:
e|-----------------------------------------------------|
B|-----------------------------------------------------|
G|-----------------------------------------------------|
D|-----------------------------------------------------|
A|-----------------------------------------------------|
E|-----------------------------------------------------|


Chorus 4:
e|-----------------------------------------------------|
B|-----------------------------------------------------|
G|-9----9----9-----9----9---9-----9----9---------------|
D|-9----9----9-----9----9---9-----9----9---------------|
A|-7----7----7-----7----7---7-----7----7---------------|
E|-----------------------------------------------------|
let ring----------------------------------|


Love!!!! Mcl!!!




----------------------------------------------------------


Icp

10.Fonz Pond


Hey,... I know where we can go.
Where?
hmm?
Lets go to Fonz Pond!

Intro:
e|-----------------------------------------------------|
B|-----------------------------------------------------|
G|-----------------------------------------------------|
D|-----------------------------------------------------|
A|-3/5-5-5-5-5-5-6-3/5-5-5-5-5-5-5-5-3/5-5-5-5-5-5-6---|
E|-1/3-3-3-3-3-3-4-1/3-3-3-3-3-3-3-3-1/3-3-3-3-3-3-4---|
pm---------| Pm-------------| pm-----------|
e|-----------------------------------------------------|
B|-----------------------------------------------------|
G|-----------------------------------------------------|
D|-----------------------------------------------------|
A|-3/5-5-5-5-5-5-5-6-5-6-------------------------------|
E|-1/3-3-3-3-3-3-3-4-3-4-------------------------------|
pm----------| pm
Verse 1:
e|-----------------------------------------------------|
B|-----------------------------------------------------|
G|-----------------------------------------------------|
D|-----------------------------------------------------|
A|-3/5-5-5-5-5-5-6-3/5-5-5-5-5-5-5-5-3/5-5-5-5-5-5-6---|
E|-1/3-3-3-3-3-3-4-1/3-3-3-3-3-3-3-3-1/3-3-3-3-3-3-4---|
pm---------| Pm-------------| pm-----------|
e|-----------------------------------------------------|
B|-----------------------------------------------------|
G|-----------------------------------------------------|
D|-----------------------------------------------------|
A|-3/5-5-5-5-5-5-5-6-5-6-------------------------------|
E|-1/3-3-3-3-3-3-3-4-3-4-------------------------------|
pm----------| pm



Chorus 1:
e|-----------------------------------------------------|
B|-----------------------------------------------------|
G|-----------------------------------------------------|
D|-----------------------------------------------------|
A|-3/5-5-5-5-5-5-6-3/5-5-5-5-5-5-5-5-3/5-5-5-5-5-5-6---|
E|-1/3-3-3-3-3-3-4-1/3-3-3-3-3-3-3-3-1/3-3-3-3-3-3-4---|
pm---------| Pm-------------| pm-----------|
e|-----------------------------------------------------|
B|-----------------------------------------------------|
G|-----------------------------------------------------|
D|-----------------------------------------------------|
A|-3/5-5-5-5-5-5-5-6-5-6-------------------------------|
E|-1/3-3-3-3-3-3-3-4-3-4-------------------------------|
pm----------| pm


Pre-Verse
e|-----------------------------------------------------|
B|-----------------------------------------------------|
G|-----------------------------------------------------|
D|-----------------------------------------------------|
A|-3/5-5-5-5-5-5-6-3/5-5-5-5-5-5-5-5-3/5-5-5-5-5-5-6---|
E|-1/3-3-3-3-3-3-4-1/3-3-3-3-3-3-3-3-1/3-3-3-3-3-3-4---|
pm---------| Pm-------------| pm-----------|
e|-----------------------------------------------------|
B|-----------------------------------------------------|
G|-----------------------------------------------------|
D|-----------------------------------------------------|
A|-3/5-5-5-5-5-5-5-6-5-6-------------------------------|
E|-1/3-3-3-3-3-3-3-4-3-4-------------------------------|
pm----------| pm



Verse 2:
e|-----------------------------------------------------|
B|-----------------------------------------------------|
G|-----------------------------------------------------|
D|-----------------------------------------------------|
A|-3/5-5-5-5-5-5-6-3/5-5-5-5-5-5-5-5-3/5-5-5-5-5-5-6---|
E|-1/3-3-3-3-3-3-4-1/3-3-3-3-3-3-3-3-1/3-3-3-3-3-3-4---|
pm---------| Pm-------------| pm-----------|
e|-----------------------------------------------------|
B|-----------------------------------------------------|
G|-----------------------------------------------------|
D|-----------------------------------------------------|
A|-3/5-5-5-5-5-5-5-6-5-6-------------------------------|
E|-1/3-3-3-3-3-3-3-4-3-4-------------------------------|
pm----------| pm





Chorus 2:
e|-----------------------------------------------------|
B|-----------------------------------------------------|
G|-----------------------------------------------------|
D|-----------------------------------------------------|
A|-3/5-5-5-5-5-5-6-3/5-5-5-5-5-5-5-5-3/5-5-5-5-5-5-6---|
E|-1/3-3-3-3-3-3-4-1/3-3-3-3-3-3-3-3-1/3-3-3-3-3-3-4---|
pm---------| Pm-------------| pm-----------|
e|-----------------------------------------------------|
B|-----------------------------------------------------|
G|-----------------------------------------------------|
D|-----------------------------------------------------|
A|-3/5-5-5-5-5-5-5-6-5-6-------------------------------|
E|-1/3-3-3-3-3-3-3-4-3-4-------------------------------|
pm----------| pm



Bridge:
e|-----------------------------------------------------|
B|-----------------------------------------------------|
G|-----------------------------------------------------|
D|-10~~~~~~~~~~~~~~-10~~~~~~~~~~~~~~-------------------|
A|-10~~~~~~~~~~~~~~-10~~~~~~~~~~~~~~-------------------|
E|-8~~~~~~~~~~~~~~~-8~~~~~~~~~~~~~~~-------------------|




Verse 3:
e|-----------------------------------------------------|
B|-----------------------------------------------------|
G|-----------------------------------------------------|
D|-----------------------------------------------------|
A|-3/5-5-5-5-5-5-6-3/5-5-5-5-5-5-5-5-3/5-5-5-5-5-5-6---|
E|-1/3-3-3-3-3-3-4-1/3-3-3-3-3-3-3-3-1/3-3-3-3-3-3-4---|
pm---------| Pm-------------| pm-----------|
e|-----------------------------------------------------|
B|-----------------------------------------------------|
G|-----------------------------------------------------|
D|-----------------------------------------------------|
A|-3/5-5-5-5-5-5-5-6-5-6-------------------------------|
E|-1/3-3-3-3-3-3-3-4-3-4-------------------------------|
pm----------| pm


Chorus 3:
e|-----------------------------------------------------|
B|-----------------------------------------------------|
G|-----------------------------------------------------|
D|-----------------------------------------------------|
A|-3/5-5-5-5-5-5-6-3/5-5-5-5-5-5-5-5-3/5-5-5-5-5-5-6---|
E|-1/3-3-3-3-3-3-4-1/3-3-3-3-3-3-3-3-1/3-3-3-3-3-3-4---|
pm---------| Pm-------------| pm-----------|
e|-----------------------------------------------------|
B|-----------------------------------------------------|
G|-----------------------------------------------------|
D|-----------------------------------------------------|
A|-3/5-5-5-5-5-5-5-6-5-6-------------------------------|
E|-1/3-3-3-3-3-3-3-4-3-4-------------------------------|
pm----------| pm


Bridge:
e|-----------------------------------------------------|
B|-----------------------------------------------------|
G|-----------------------------------------------------|
D|-10~~~~~~~~~~~~~~-10~~~~~~~~~~~~~~-------------------|
A|-10~~~~~~~~~~~~~~-10~~~~~~~~~~~~~~-------------------|
E|-8~~~~~~~~~~~~~~~-8~~~~~~~~~~~~~~~-------------------|


Chorus 4:
e|-----------------------------------------------------|
B|-----------------------------------------------------|
G|-----------------------------------------------------|
D|-----------------------------------------------------|
A|-3/5-5-5-5-5-5-6-3/5-5-5-5-5-5-5-5-3/5-5-5-5-5-5-6---|
E|-1/3-3-3-3-3-3-4-1/3-3-3-3-3-3-3-3-1/3-3-3-3-3-3-4---|
pm---------| Pm-------------| pm-----------|
e|-----------------------------------------------------|
B|-----------------------------------------------------|
G|-----------------------------------------------------|
D|-----------------------------------------------------|
A|-3/5-5-5-5-5-5-5-6-5-6-------------------------------|
E|-1/3-3-3-3-3-3-3-4-3-4-------------------------------|
pm----------| pm

Icp

11.Imma Kill U
(No guitar in this song)
-----------------------------------------------------------

Icp

12.Juggalo Island

(I am posting a guitar pro of this song so yea just to let you know)

Intro:
You know what would be the shit? (Let's trip in the sun)

What if... we had our own island, man? (Let's trip in the sun baby)
c


Verse 1:
I got my toes in the sand, watching hoes play volleyball
F


It's summertime and I'm feeling jolly y'all
C

Food on the fire, boats in the water and
Bb

Taking time off from my serial slaughtering
C

Here for the weekend, me and these friends
F

Sunny sunshine, blue skies never end
C

There's a mermaid waving me to come in
Bb

Underwater on my balls she's humming
C

Smoking on a fat one, we come to have fun
F

I got my dick in your hotdog bun
C

Pouring off shots for everybody that's sipping
Bb

Let's get loose now, skinny dipping
C

Don't hate me cuz the Speedo I'm wearing
F

Got your girlfriend staring, we out here
C

Skies so clear, ice cold beer
Bb

Suntan topless, bitch, come over here
C



Chorus 1:
On Juggalo Island
F

We can be one
C Bb

Let our nuts hang by the water
C F


We can have fun
C Bb

We can let go by the water


Verse 2:
Bang! Pow! Boom! Sunny like high noon
F

Met some Lettes and they all coming over soon
C

Have a luau, I'm getting blew out
Bb

Come over here if you ever get flew out
C

We got a place for ya, never will ignore ya
F

Got a hot plate, and a drink we gonna pour ya
C

Corps on the grill, Clays on the 1,2
Bb

And around here, the dead have fun too
C

Stiffs in the water, floating, we see you
F

Doing flips in the air, run and see, dude
C

No cops, unless they pouring off shots
Bb

Unless ya helping us smoke these crops
C

Surfing on the big one, having big fun
F

Fucking with a big fat one under the sun
C

Letting em hang, doing our thing
Bb

Listen to em up and down the beach, everybody sing
C

Chorus 3:
On Juggalo Island
F

We can be one
C Bb

Let our nuts hang by the water
C F


We can have fun
C Bb

We can let go by the water


Interlude:
And when the sun goes down, we up all night
F

Dance of the dead, boogie-woogie in the moonlight
c

Fuck the rules, right? The dead do bite
Bb

Listen to the Ouija board, we can only do right
C

Can't do wrong, fatty in a blue thong
F

Everybody can't be together with you gone
C

Come get with this, we get ridiculous
Bb

This world is ours, every bit of this



Get you a burger with cheese. Enjoy the breeze
F C

I'm jumping coconuts outta palm trees


And we all in. I'm freeballing
Bb

See me shore-side, surfing on a dolphin
c

Grass skirts, dead hula girls, hatchets
c

And whatever your fishing hook catches
C

We only without you, so let's hang
Bb

Boom! Pow! Bang! Let's do the damn thing!
C


Chorus 3:
On Juggalo Island
F

We can be one
C Bb

Let our nuts hang by the water
C F


We can have fun
C Bb

We can let go by the water




Breakdown:

(F,C,Bb,C,F,C,Bb,C)

[Keep repeating "Let's trip in the sun, baby]



Chorus 4:


On Juggalo Island
F

We can be one
C Bb

Let our nuts hang by the water
C F


We can have fun
C Bb

We can let go by the water



---------------------------------------------------------

ICP

13.Vultures


Chorus:
e|-----------------------------------------------------|
B|-----------------------------------------------------|
G|-----------------------------------------------------|
D|-----------------------------------------------------|
A|-5~~~~~-7~~~~~-2~~~~~--------------------------------|
E|-3~~~~~-5~~~~~-0~~~~~--------------------------------|


---------------------------------------------------------

ICP

14.Vera Lee



Intro and verse:(keyboards into a guitar)
e|-----------------------------------------------------|
B|-----------------------------------------------------|
G|-----------------------------------------------------|
D|-----------------------------------------------------|
A|-3---2-----------------------------------------------|
E|---------3-1-----------------------------------------|


chorus 1:
e|-----------------------------------------------------|
B|-----------------------------------------------------|
G|-----------------------------------------------------|
D|-5--4------------------------------------------------|
A|-3--2---5---3----------------------------------------|
E|--------3---1----------------------------------------|

Chorus 2:
e|-----------------------------------------------------|
B|-----------------------------------------------------|
G|-----------------------------------------------------|
D|-5--4------------------------------------------------|
A|-3--2---5---3----------------------------------------|
E|--------3---1----------------------------------------|


e|-----------------------------------------------------|
B|-----------------------------------------------------|
G|-----------------------------------------------------|
D|-----------------------------------------------------|
A|-3-3-3-3-3-3-3-2-2-2-2-2-2-2-2-----------------------|
E|-------------------------------3-3-3-3-3-3-3-3-1-1-1-|
PM-----------------------------------------------------|
e|-----------------------------------------------------|
B|-----------------------------------------------------|
G|-----------------------------------------------------|
D|-----------------------------------------------------|
A|-----------------------------------------------------|
E|-1-1-1-1-1-------------------------------------------|
PM-----------------------------------------------------|

---------------------------------------------------------


Icp

15.Miracles

solo:
e|-----------------------------------------------------|
B|-9b-7-9-7-------7---7--------7-----------------------|
G|----------8-6-8---8----8-6-8-------------------------|
D|-----------------------------------------------------|
A|-----------------------------------------------------|
E|-----------------------------------------------------|
(repeat 2 times


e|--------------------6--------6-----------------------|
B|-9b-7-9-7-------7---7--------7-----------------------|
G|----------8-6-8---8----8-6-8-------------------------|
D|-----------------------------------------------------|
A|-----------------------------------------------------|
E|-----------------------------------------------------|


e|-----------------------------------------------------|
B|----------7------7-----------------------------------|
G|------8-6--8-6-8-------------------------------------|
D|-6-8-6-----------------------------------------------|
A|-----------------------------------------------------|
E|-----------------------------------------------------|
well that is bout it b/c the rest of the solo is basicly all of these
notes just put in different ways.

---------------------------------------------------------


Icp

16.Bang!Pow!Boom!


riff 1:
e|-----------------------------------------------------|
B|-----------------------------------------------------|
G|-----------------------------------------------------|
D|--------------6~~~~~/--------------------------------|
A|-6~~~~-6~~~~~-4~~~~~/6-------------------------------|
E|-4~~~~-4~~~~~--------4-------------------------------|

riff 2:
e|-----------------------------------------------------|
B|-----------------------------------------------------|
G|---------5-------------------------------------------|
D|-0-5-0-0---7-5-7-------------------------------------|
A|-----------------------------------------------------|
E|-----------------------------------------------------|
PM------------------|




Plez tell me what you thought about the tabs homies >.< MCL!



Like us on Facebook.....
-> Loading Time :0.0279 sec