Bad Magick Tabs & Lyrics by Godsmack

Bad Magick

guitar tabs lyrics

Godsmack

Album : Awake hard rock PlayStop


Band- Godsmack
Song- Bad Magick
Album- Awake

Eb5I F5 F#5 G#5
1 1 x x x x 3 3 x x x x 4 4 x x x x 6 6 x x x x

C5 Eb5 C5X N.C.
x 3 5 5 x x x 6 8 8 x x x x 10 12 13 x x x 10 11 13 x

Cmaj7sus4/F
3 3 3 4 0 x

Gtr I (D A D G B E) - 'Tony Rombola'
Gtr II (D A D G B E) - 'Tony Rombola Lead'

Intro
Q=100
C5 Eb5 C5 C5X N.C. C5X N.C.
4/4
Gtr I
E. S +E E +E E S E S +S S E S E S +S S E S S S S
||-------------------------------|---------------------------------------------|
||o-----------------/13-13-13-13-|-(13)-13-13-13-13-13-(13)-13-13-13-13-13-----|
||--5--/8-(8)-5-(5)-/12-12-11-11-|-(11)-11-11-12-12-12-(12)-12-12-11-11-11-----|
||--5--/8-(8)-5-(5)-/10-10-10-10-|-(10)-10-10-10-10-10-(10)-10-10-10-10-10-----|
||o-3--/6-(6)-3-(3)--------------|---------------------------------------------|
||-------------------------------|-----------------------------------------15\-|


C5 Eb5 C5 C5X N.C. C5X N.C.
E. S +E E +E E S E S +S S E S E S +S S E S S S S
|------------------------------|----------------------------------------------||
|-----------------/13-13-13-13-|-(13)-13-13-13-13-13-(13)-13-13-13-13-13-----o||
|-5--/8-(8)-5-(5)-/12-12-11-11-|-(11)-11-11-12-12-12-(12)-12-12-11-11-11------||
|-5--/8-(8)-5-(5)-/10-10-10-10-|-(10)-10-10-10-10-10-(10)-10-10-10-10-10------||
|-3--/6-(6)-3-(3)--------------|---------------------------------------------o||
|------------------------------|-----------------------------------------15\--||


Verse
F5 G#5 F5 F#5 F5 G#5 F5 Cmaj7F5sG#5 F5 F#5
E. S +E E E E S E. E. S +E E E S S S E. E. S +E E E E S E.
||----------------------|-----------------------|---------------------|
||o---------------------|--------------------0--|---------------------|
||----------------------|--------------------4--|---------------------|
||----------------------|--------------------3--|---------------------|
||o-3--6-(6)-3---3-3-4--|-3--6-(6)-3---x-x-x-3--|-3--6-(6)-3---3-3-4--|
||--3--6-(6)-3---3-3-4--|-3--6-(6)-3---x-x-x-3--|-3--6-(6)-3---3-3-4--|


F5 G#5 F5 G#5 F5 F#5 F5 F5 Cmaj7sus4/F
E. S +E E H E. S +E E E E S E. E. S +E E E S S S E.
|-----------------|---------------------|-----------------------|
|-----------------|---------------------|--------------------0--|
|-----------------|---------------------|--------------------4--|
|-----------------|---------------------|--------------------3--|
|-3--6-(6)-3------|-3--6-(6)-3---3-3-4--|-3--6-(6)-3---x-x-x-3--|
|-3--6-(6)-3------|-3--6-(6)-3---3-3-4--|-3--6-(6)-3---x-x-x-3--|


F5 G#5 F5 F#5 F5 G#5 F5
E. S +E E E E S E. E. S +E E +Q. S S
|---------------------|----------------------||
|---------------------|----------------------||
|---------------------|----------------------||
|---------------------|----------------------||
|-3--6-(6)-3---3-3-4--|-3--6-(6)-3-(3)---x-x-||
|-3--6-(6)-3---3-3-4--|-3--6-(6)-3-(3)---x-x-||


Chorus
$
C5 Eb5 C5 C5X N.C. C5X N.C.
E. S +E E +E E S E S +S S E S E S +S S E S S S S
|------------------------------|---------------------------------------------|
|-----------------/13-13-13-13-|-(13)-13-13-13-13-13-(13)-13-13-13-13-13-----|
|-5--/8-(8)-5-(5)-/12-12-11-11-|-(11)-11-11-12-12-12-(12)-12-12-11-11-11-----|
|-5--/8-(8)-5-(5)-/10-10-10-10-|-(10)-10-10-10-10-10-(10)-10-10-10-10-10-----|
|-3--/6-(6)-3-(3)--------------|---------------------------------------------|
|------------------------------|-----------------------------------------15\-|


C5 Eb5 C5 C5X N.C. C5X N.C.
E. S +E E +E E S E S +S S E S E S +S S E S S S S
|------------------------------|---------------------------------------------|
|-----------------/13-13-13-13-|-(13)-13-13-13-13-13-(13)-13-13-13-13-13-----|
|-5--/8-(8)-5-(5)-/12-12-11-11-|-(11)-11-11-12-12-12-(12)-12-12-11-11-11-----|
|-5--/8-(8)-5-(5)-/10-10-10-10-|-(10)-10-10-10-10-10-(10)-10-10-10-10-10-----|
|-3--/6-(6)-3-(3)--------------|---------------------------------------------|
|------------------------------|-----------------------------------------15\-|


C5 Eb5 C5 C5X N.C. C5X N.C.
E. S +E E +E E S E S +S S E S E S +S S E S S S S
|------------------------------|---------------------------------------------|
|-----------------/13-13-13-13-|-(13)-13-13-13-13-13-(13)-13-13-13-13-13-----|
|-5--/8-(8)-5-(5)-/12-12-11-11-|-(11)-11-11-12-12-12-(12)-12-12-11-11-11-----|
|-5--/8-(8)-5-(5)-/10-10-10-10-|-(10)-10-10-10-10-10-(10)-10-10-10-10-10-----|
|-3--/6-(6)-3-(3)--------------|---------------------------------------------|
|------------------------------|-----------------------------------------15\-|


To Coda
C5 Eb5 C5 C5X N.C. C5X N.C.
E. S +E E +E E S E S +S S E S E S +S S E S S S S
|------------------------------|---------------------------------------------|
|-----------------/13-13-13-13-|-(13)-13-13-13-13-13-(13)-13-13-13-13-13-----|
|-5--/8-(8)-5-(5)-/12-12-11-11-|-(11)-11-11-12-12-12-(12)-12-12-11-11-11-----|
|-5--/8-(8)-5-(5)-/10-10-10-10-|-(10)-10-10-10-10-10-(10)-10-10-10-10-10-----|
|-3--/6-(6)-3-(3)--------------|---------------------------------------------|
|------------------------------|-----------------------------------------15\-|


1. 2.
F5 Eb5I F5
E. S E E E Q. W
|------------------||------||
|-----------------o||------||
|------------------||------||
|------------------||------||
|-3--3---3---1----o||-3----||
|-3--3---3---1-----||-3----||


Bridge
PM--------------| PM----| PM--------------| PM----|
S S S S E S S S S E S S S S W S S S S E S S S S E S S S S
||------------------------------|----------|------------------------------|
||o-----------------------------|----------|------------------------------|
||------------------------------|----------|------------------------------|
||------------------------------|----------|------------------------------|
||o-----------------------------|----------|------------------------------|
||--3-3-1-3---3-3-1-3---3-3-1-3-|----------|-3-3-1-3---3-3-1-3---3-3-1-3--|


PM----| PM----| PM----| PM----|
E S S S S Q Q +E S S S S E S S S S E S S S S W
|-----------------------|-----------------------------|------|
|-----------------------|-----------------------------|------|
|--------------3b4--(3)-|-----------------------------|------|
|-----------------------|-----------------------------|------|
|-----------------------|-----------------------------|------|
|---3-3-1-3-------------|-3-3-1-3---3-3-1-3---3-3-1-3-|------|


PM----| PM----| PM----| PM----|
S S S S E S S S S E S S S S E S S S S E Q Q
|-----------------------------|----------------------|
|-----------------------------|----------------------|
|-----------------------------|----------------------|
|-----------------------------|----------------------|
|-----------------------------|----------------/15\--|
|-3-3-1-3---3-3-1-3---3-3-1-3-|---3-3-1-3------/15\--|


Gtr I
S S S S +E S S S E. S S S S +E S S S E. +Q Q
|------------------------------|---------------------------|
|------------------------------|---------------------------|
|------------------------------|---------------------------|
|------------------------------|---------------------------|
|-3-3-1-3-(3)-3-3-1-3--3-3-1-3-|-(3)-3-3-1---3--(3)--/15\--|
|-3-3-1-3-(3)-3-3-1-3--3-3-1-3-|-(3)-3-3-1---3--(3)--/15\--|
|
| Gtr II
| <
| W Q H.
|------------------------------|---------------------------|
|------------------------------|---------------------------|
|------------------------------|---------4b5---------------|
|------------------------------|---------3-----------------|
|------------------------------|---------------------------|
|------------------------------|---------------------------|


F5 EbF5 EbF5 EbF5 EbF5
S S S S +E S S S E. S S S S +E S S S E. +Q Q
|--------------------------------|-------------------------|
|--------------------------------|-------------------------|
|--------------------------------|-------------------------|
|--------------------------------|-------------------------|
|--3--3-1-3-(3)-3-3-1-3--3-3-1-3-|-(3)-3-3-1-3--(3)--/15\--|
|--3--3-1-3-(3)-3-3-1-3--3-3-1-3-|-(3)-3-3-1-3--(3)--/15\--|
|
| +Q Q H W
|--------------------------------|-------------------------|
|--------------------------------|-------------------------|
|-(4)----------------------------|-------------------------|
|-(3)----------------------------|-------------------------|
|--------------------------------|-------------------------|
|--------------------------------|-------------------------|


F5 EbF5 EbF5 EbF5 Eb5IF5EbF5
S S S S +E S S S E. S S S S +E E S S S S +Q Q
|------------------------------|----------------------------|
|------------------------------|----------------------------|
|------------------------------|----------------------------|
|------------------------------|----------------------------|
|-3-3-1-3-(3)-3-3-1-3--3-3-1-3-|-(3)-3-1---3-1-3-(3)--/15\--|
|-3-3-1-3-(3)-3-3-1-3--3-3-1-3-|-(3)-3-1---3-1-3-(3)--/15\--|
|
| <
| W Q H.
|------------------------------|----------------------------|
|------------------------------|----------------------------|
|------------------------------|-------4b5------------------|
|------------------------------|-------3--------------------|
|------------------------------|----------------------------|
|------------------------------|----------------------------|


1.
F5 EbF5 EbF5 EbF5 EbF5
S S S S +E S S S E. S S S S +E S S S E. +Q Q
|--------------------------------|--------------------------||
|--------------------------------|-------------------------o||
|--------------------------------|--------------------------||
|--------------------------------|--------------------------||
|--3--3-1-3-(3)-3-3-1-3--3-3-1-3-|-(3)-3-3-1-3--(3)--/15\--o||
|--3--3-1-3-(3)-3-3-1-3--3-3-1-3-|-(3)-3-3-1-3--(3)--/15\---||
|
| +Q Q H W
|--------------------------------|--------------------------||
|--------------------------------|-------------------------o||
|-(4)----------------------------|--------------------------||
|-(3)----------------------------|--------------------------||
|--------------------------------|-------------------------o||
|--------------------------------|--------------------------||


2.
F5 EbF5 EbF5 G#5
S S S S +E S S S E. S S S S E. S +E E +S S S S S S S S
|--------------------------------|------------------------------||
|--------------------------------|------------------------------||
|--------------------------------|------------------------------||
|--------------------------------|------------------------------||
|--3--3-1-3-(3)-3-3-1-3--3-3-3-3-|-6--6-(6)-6-(6)-6-6-6-6-6-6-6-||
|--3--3-1-3-(3)-3-3-1-3--3-3-3-3-|-6--6-(6)-6-(6)-6-6-6-6-6-6-6-||
|
| Q Q H W
|--------------------------------|------------------------------||
|--------------------------------|------------------------------||
|-(4)----------------------------|------------------------------||
|-(3)----------------------------|------------------------------||
|--------------------------------|------------------------------||
|--------------------------------|------------------------------||


Guitar Solo
F5 G#5 F5 F#5
Gtr I
E. S +E E E E S E.
|-------------------------------------------|
|-------------------------------------------|
|-------------------------------------------|
|-------------------------------------------|
|--3------6--(6)-----3-----------3--3----4--|
|--3------6--(6)-----3-----------3--3----4--|
|
| Gtr II
| E S S +S S E +Q Q
|-------------------------------------------|
|-------------------------------------------|
|-16--16-16-(16)-16-16b16.5-(16)---16b17----|
|-15--15-15-(15)-15-15------(15)---15-------|
|-------------------------------------------|
|-------------------------------------------|


F5 G#5 F5 Cmaj7sus4/F F5 G#5 F5 F#5
E. S +E E E S S S E. E. S +E E E E S E.
|--------------------------------------------|----------------------|
|----------------------------------0---------|----------------------|
|----------------------------------4---------|----------------------|
|----------------------------------3---------|----------------------|
|--3---6--(6)--3------------x--x-x-3---------|-3--6-(6)-3---3-3-4---|
|--3---6--(6)--3------------x--x-x-3---------|-3--6-(6)-3---3-3-4---|
|
| TP
| E. S +E E +E +Q +E W
|--------------------------------------------|----------------------|
|--------------------------------------------|----------------------|
|-16--16-(16)-16b17==(16)-(16)--------(16)r\-|----------------------|
|-15--15-(15)-15-----(15)-(15)--------(15)\--|-1--------------------|
|--------------------------------------------|----------------------|
|--------------------------------------------|----------------------|


F5 G#5 F5 G#5 F5 F#5
E. S +E E H E. S +E E E E S E.
|-----------------|----------------------------------------------|
|-----------------|----------------------------------------------|
|-----------------|----------------------------------------------|
|-----------------|----------------------------------------------|
|-3--6-(6)-3------|-3-------6-----(6)-3--------3-----------3--4--|
|-3--6-(6)-3------|-3-------6-----(6)-3--------3-----------3--4--|
|
| TP ~~~~~~~
| W S S S S +Q +E +S S +Q
|-----------------|----------------------------------------------|
|-----------------|--------16b18-(16)---(16)-(16)-16b18==(16)----|
|-----------------|----------------------------------------------|
|-1---------------|-x--x-x---------------------------------------|
|-----------------|----------------------------------------------|
|-----------------|----------------------------------------------|


F5 G#5 F5 Cmaj7sus4/F
E. S +E E E S S S E.
|-------------------------------------------------------------|
|--------------------------------------------------------0----|
|--------------------------------------------------------4----|
|--------------------------------------------------------3----|
|---3------------6----(6)-----3----------------x--x---x--3----|
|---3------------6----(6)-----3----------------x--x---x--3----|
|
|~~~~~~~ ~~
| |-------5-------| |--3--|
| +S S S S S S S S S S T T E S +E. S
|-------13----------------------------------------------------|
|-(16)r----16-13------13--------------------------------------|
|------------------16-----16p15h16p15p13----15---13-(13)s===5-|
|----------------------------------------15-------------------|
|-------------------------------------------------------------|
|-------------------------------------------------------------|


F5 G#5 F5 F#5
E. S +E E E E S E.
|--------------------------------------------------------|
|--------------------------------------------------------|
|--------------------------------------------------------|
|--------------------------------------------------------|
|-3-------6-(6)---3----------------3-------3----4--------|
|-3-------6-(6)---3----------------3-------3----4--------|
|
| S E S s E S +E +E +S +S E
|--------16---------18pb20==(18)r(18)b20-(18)-(18)-18b20-|
|----/18----18-------------------------------------------|
|--------------------------------------------------------|
|--------------------------------------------------------|
|--------------------------------------------------------|
|--------------------------------------------------------|


D.S. al Coda
F5 G#5 F5
E. S +E E +Q. S S
|----------------------------------------||
|----------------------------------------||
|----------------------------------------||
|----------------------------------------||
|---3--------6-----(6)--3-----(3)----x-x-||
|---3--------6-----(6)--3-----(3)----x-x-||
|
| +S +E S +E E +H
|-(18)-(18)-18b20-(18)-18b20-(18)\-------||
|-----------18b20-(18)-18b20-(18)\-------||
|----------------------------------------||
|----------------------------------------||
|----------------------------------------||
|----------------------------------------||


&
F5
W +H +Q. E
|----------|-----------------||
|----------|-----------------||
|----------|-----------------||
|----------|-----------------||
|-3--------|-(3)----(3)---3/-||
|-3--------|-(3)----(3)---3/-||


Outro
PM--------------| PM----|
S S S S E S S S S E S S S S W
|-----------------------------|------|
|-----------------------------|------|
|-----------------------------|------|
|-----------------------------|------|
|-----------------------------|------|
|-3-3-1-3---3-3-1-3---3-3-1-3-|------|


PM--------------| PM----| PM----|
S S S S E S S S S E S S S S E S S S S Q Q +E
|-----------------------------|-----------------------|
|-----------------------------|-----------------------|
|-----------------------------|--------------3b4--(3)-|
|-----------------------------|-----------------------|
|-----------------------------|-----------------------|
|-3-3-1-3---3-3-1-3---3-3-1-3-|---3-3-1-3-------------|


PM--------------| PM----| PM--------------| PM----|
S S S S E S S S S E S S S S W S S S S E S S S S E S S S S
|-----------------------------|----------|-----------------------------*|
|-----------------------------|----------|-----------------------------*|
|-----------------------------|----------|-----------------------------*|
|-----------------------------|----------|-----------------------------*|
|-----------------------------|----------|-----------------------------*|
|-3-3-1-3---3-3-1-3---3-3-1-3-|----------|-3-3-1-3---3-3-1-3---3-3-1-3-*|


Duration Legend
---------------
W - whole; H - half; Q - quarter; E - 8th; S - 16th; T - 32nd; X - 64th; a - acciaccatura
+ - note tied to previous; . - note dotted; .. - note double dotted
Uncapitalized letters represent notes that are staccato (1/2 duration)
Irregular groupings are notated above the duration line
Duration letters will always appear directly above the note/fret number it represents the
duration for. Duration letters with no fret number below them represent rests. Multi-
bar rests are notated in the form Wxn, where n is the number of bars to rest for. Low
melody durations appear below the staff

Tablature Legend
----------------
h - hammer-on
p - pull-off
b - bend
pb - pre-bend
r - bend release (if no number after the r, then release immediately)
/\ - slide into or out of (from/to "nowhere")
s - legato slide
S - shift slide
- natural harmonic
[n] - artificial harmonic
n(n) - tapped harmonic
~ - vibrato
tr - trill
T - tap
TP - trem. picking
PM - palm muting
\n/ - tremolo bar dip; n = amount to dip
\n - tremolo bar down
n/ - tremolo bar up
/n\ - tremolo bar inverted dip
= - hold bend; also acts as connecting device for hammers/pulls
- volume swell (louder/softer)
x - on rhythm slash represents muted slash
o - on rhythm slash represents single note slash

Misc Legend
-----------
| - bar
|| - double bar
||o - repeat start
o|| - repeat end
*| - double bar (ending)
: - bar (freetime)
$ - Segno
& - Coda
Tempo markers - = BPM(8/16=s8/s16), where s8 = swing 8ths, s16 = swing 16ths

Like us on Facebook.....
-> Loading Time :0.0265 sec