Bad Light Tabs & Lyrics by Built to Spill

Bad Light

guitar tabs lyrics

Built to Spill

Album : Keep It Like a Secret 1999 PlayStop


Tabbed by:CMM
Email:colin_michael_muppet@hotmail.com

Tuning:Standard

(Intro)
e|-10-10-10-10-10-10-10-10-10-10-10-10-10-10-10-10-10-10-10-10-10-10-10--|
B|-----------------------------------------------------------------------|
G|-----------------------------------------------------------------------|
D|-----------------------------------------------------------------------|

A|-----------------------------------------------------------------------|
E|-----------------------------------------------------------------------|

(Main Riff)
e|------------------------------|
B|------------------------------|
G|-----------0---------8\-------|
D|--------0---------7-----------|
A|---0h2---------6--------------|
E|-3----------------------------|

(Verse Guitar One)
e|---------------------------------------------------------------------|
B|---------------------------------------------------------------------|
G|--(8)/12---\-------(8)/12---\-------(8)/12--\--------(8)/12--\-------|
D|---x---x------------x---x------------x---x------------x---x----------|
A|--(6)/10---\-------(6)/10---\-------(6)/10---\-------(6)/10---\------|
E|---------------------------------------------------------------------|

(Verse Guitar Two)
e|-----------------------------------------------------------------------|
B|-----------------------------------------------------------------------|
G|--12--12--x-x-x-x-x-x-x--12--12--x-x-x-x-x-x-x--12--12--x-x-x-x-x-x-x--|
D|---x---x--x-x-x-x-x-x-x---x---x--x-x-x-x-x-x-x---x---x--x-x-x-x-x-x-x--|
A|--10--10--x-x-x-x-x-x-x--10--10--x-x-x-x-x-x-x--10--10--x-x-x-x-x-x-x--|
E|-----------------------------------------------------------------------|

e|--------------------------|
B|--------------------------|
G|--12--12--x-x-x-x-x-x-x---|
D|---x---x--x-x-x-x-x-x-x---|
A|--10--10--x-x-x-x-x-x-x---|
E|--------------------------|


(Verse Guitar Three)
e|-10----------------10----------------10---------------10----------|
B|-----12---------------12-----------------12---------------12------|
G|---------12---------------12-----------------12---------------12--|
D|------------------------------------------------------------------|
A|------------------------------------------------------------------|
E|------------------------------------------------------------------|

(Post Verse Guitar One)
e|------------------------------------------------------------------------|
B|------------------------------------------------------------------------|
G|------------------------------------------------------------------------|
D|-------------------------------------12h13p12p10--12h13p12p10-----------|
A|--10---12h13p12p10--12h13p12p10--10----------------------------10-------|
E|------------------------------------------------------------------------|

(Post Verse Guitar Two)
e|------------------------------------------------------------------------|
B|------------------------------------------------------------------------|
G|-8--8/10--7----8--8/10--7----8--8/10--7----8--8/10--7---8--8--8--/10----|
D|--------------------------------------------------------x--x--x----x----|
A|--------------------------------------------------------6--6--6--/-8----|
E|------------------------------------------------------------------------|

e|-----------------------------------------------------------------------|
B|-----------------------------------------------------------------------|
G|--12--12--x-x-x-x-x-x-x--12--12--x-x-x-x-x-x-x--12--12--x-x-x-x-x-x-x--|
D|---x---x--x-x-x-x-x-x-x---x---x--x-x-x-x-x-x-x---x---x--x-x-x-x-x-x-x--|
A|--10--10--x-x-x-x-x-x-x--10--10--x-x-x-x-x-x-x--10--10--x-x-x-x-x-x-x--|
E|-----------------------------------------------------------------------|

e|--------------------------|
B|--------------------------|
G|--12--12--x-x-x-x-x-x-x---|
D|---x---x--x-x-x-x-x-x-x---|
A|--10--10--x-x-x-x-x-x-x---|
E|--------------------------|


(Verse Guitar Three)
e|------------------------------------------------------------------------|
B|------------------------------------------------------------------------|
G|-/12---14\12---15\14--15\14--15\14--10--12--14\12--15\14--15--17--/19---|
D|------------------------------------------------------------------------|
A|------------------------------------------------------------------------|
E|------------------------------------------------------------------------|

(Pre Chorus Slide Guitar)
e|---------------------------------------------------------------------|
B|------8----------------8----------------8----------------8-----------|
G|-5h7-----7--------5h7-----7--------5h7-----7--------5h7-----7--------|
D|------------7\---------------7\---------------7\---------------7\----|
A|---------------------------------------------------------------------|
E|---------------------------------------------------------------------|

(Chorus Chords)
e|--3-------6---|
B|--3---8---6---|
G|--4---8---7---|
D|--5---8---8---|
A|--5---6---8---|
E|--3-------6---|
G Eb Bb

(Lyrics/Chords)

G G G
And it takes some math, And its so much more, It's so hard to read,

Eb Bb G Eb Bb G
In bad light, It's so hard to read, In bad light, It's so hard to see,

Eb Bb G Eb Bb
In bad light, It's so hard to see, In bad light



| / slide up
| \ slide down
| h hammer-on
| p pull-off
| ~ vibrato
| + harmonic
| x Mute note
===============================================================================

Like us on Facebook.....
-> Loading Time :0.0100 sec