August 8th Tabs & Lyrics by NOFX

August 8th

guitar tabs lyrics

NOFX

Album : Heavy Petting Zoo punk PlayStop


Artist: Nofx
Song: August 8th
CD: Heavy Petting Zoo


The other version were not accurate so i tab it.



Intro: Basically it's just C,G,Am,G,C,G,F,C


C G Am G
E------------------------------------
B----1-------------------------------
G------0-------0----2----------------
D--2-----0---0----2---2------0-------
A--3-------2------0---------2--------
E----------3---------------3---------

Repeat intro three times

C G F C
E----------------------------------
B----1--------------1--------------
G------0------0------2-------------
D--2--------0-----3-----2----------
A--3------2-------------3----------
E---------3------------------------


Pre-Chorus (twice)
C G Am G
E------------------------------
B------------------------------
G--5555------------------------
D--5555--5555--7777--5555------
A--3333--5555--7777--5555------
E--------3333--5555--3333------


C G F C
E--------------------------
B--------------------------
G--5555--------------5555--
D--5555--5555--3333--5555--
A--3333--5555--3333--3333--
E--------3333--1111--------



Chorus(repeat two time)

A5
E--------------------------
B--------------------------
G--2-----------------------
D--22222-33333-55555-------
A--0-----3-----5-----22222-
E--------1-----3-----0-----


Verse : same as intro but only two time

Pre-Chorus & Chorus

repeat intro one time


any correction/comment plz e-mail me at green_baypackers@hotmail.com

Like us on Facebook.....
-> Loading Time :0.0117 sec